Línea 1
Los Planetas
Acordes

Subida por Mesi10



Otras Versiones
Ver. 2

ENTRENA TU OÍDO MUSICAL CON ESTE JUEGO. ¿QUÉ ACORDE ES?. CLIC AQUÍ PARA JUGAR

Cambiar Cifrado
Americano Latino

Cambiar Tonalidad
-1 +1

Partir Pantalla Imprimir FAQ

+A
-A
LETRA CON ACORDES

------------------------------------------------------------
------------------------------------------------------------

NOTACION

X= muted con la mano izquierda
¡= rasguear de arriba a abajo
!= rasguear de abajo a arriba

------------------------------------------------------------
------------------------------------------------------------

FORMACION DE ACORDES

C (x32010)
F (133211)
G (320003)

------------------------------------------------------------
------------------------------------------------------------

AFINACION

Normal (standar)

------------------------------------------------------------
------------------------------------------------------------

N.d.A: para tocar bien esta canción es necesario seguir una
secuencia de rasgueo determinada con la mano derecha; en la
intro os indico en que momentos J. rasguea los acordes de
arriba a abajo o de abajo a arriba para que os quedéis con
el sonido de los dos tipos de rasgueo de acordes y luego po-
dáis aplicar las secuencias de rasgueo al resto d la canción

------------------------------------------------------------
------------------------------------------------------------


-----
INTRO
-----



1)



F

--1----1----1--1--1--
--1----1----1--1--1--
--2----2----2--2--2--
--3----3----3--3--3--
--3----3----3--3--3--
--1----1----1--1--1--

¡ ! ! ¡ !



Progresión G (P-G)

--3----3----0--0--1--
--0----0----3--3--0--
--0----0----0--0--0--
--0----0----0--0--0--
--2----2----2--2--2--
--3----3----3--3--3--

¡ ! ! ¡ !



Progresión C (P-C)

--0----0----0--0--1----0--0--0----1--1--
--1----1----3--3--0----3--3--1----0--0--
--0----0----0--0--0----0--0--0----0--0--
--2----2----2--2--2----2--2--2----2--2--
--3----3----3--3--3----3--3--3----3--3--
----------------------------------------

¡ ! ! ¡ ! ! ¡ ! ! ¡



2)



F

--1----1----1--1--1--
--1----1----1--1--1--
--2----2----2--2--2--
--3----3----3--3--3--
--3----3----3--3--3--
--1----1----1--1--1--

¡ ! ! ¡ !



Progresión G (P-G)

--3----3----0--0--1--
--0----0----3--3--0--
--0----0----0--0--0--
--0----0----0--0--0--
--2----2----2--2--2--
--3----3----3--3--3--

¡ ! ! ¡ !


C
X X X
--0----0--0--0----0--0--0---0--0--0--
--1----1--1--1----1--1--1---1--1--1--
--0----0--0--0----0--0--0---0--0--0--
--2----2--2--2----2--2--2---2--2--2--
--3----3--3--3----3--3--3---3--3--3--
-------------------------------------

¡ ! ! ¡ ! ! ! ! ¡ !



-------
VERSO 1
-------

F P-G C
Iba a hacerlo esta mañana levantarme de la cama

F P-G C
Comprar algo de comida empezar con otra vida


--------
CHORUS 1
--------

F C G F G C
Pensé que sería lo mejor toda esta mierda se acabó

F C G F G
Voy a dejarlo de verdad ya no me gusta nada


-------
VERSO 2
-------

C F P-G C
Y ordenar por fin la casa y lavar estas dos mantas

F P-G C
Y recuperar mis discos y unas cosas que he perdido


--------
CHORUS 2
--------

F C G F G C
Y después pensé mejor que no y puse la televisión

F C G F G C F
Subí a pillar un poco más después de todo esto no está mal


-----------
POST-CHORUS
-----------


F G C (x4)


--------
CHORUS 3
--------

F C G F G C
Y después pensé mejor que no y puse la televisión

F C G F G C F G
Subí a pillar un poco más después de todo esto no está mal

C F G C
No está mal, no está mal


-----
FINAL
-----

F P-G C
Iba a hacerlo esta mañana levantarme de la cama

F P-G C
Comprar algo de comida ordenar por fin mi vida


F P-G C (x4)


------------------------------------------------------------
------------------------------------------------------------


ACORDES PARA GUITARRA

PIANO UKELELE
F
C
G


COMENTARIOS

Aún no hay comentarios,

¡escribe el primero!

Para hacer una pregunta o dejar un comentario sobre esta canción, debes estar LOGUEADO

Las canciones más tocadas de Los Planetas

Toca una Canción al Azar de Los Planetas
F
C
G

Nuestro servidor se demoró 0.05 segundos en generar esta página. Eso fue realmente muy rápido!