Aeropuerto
Los Planetas
Acordes

Subida por Agarciadrums



Otras Versiones
Ver. 2

ENTRENA TU OÍDO MUSICAL CON ESTE JUEGO. ¿QUÉ ACORDE ES?. CLIC AQUÍ PARA JUGAR

Cambiar Cifrado
Americano Latino

Cambiar Tonalidad
-1 +1

Partir Pantalla Imprimir FAQ

Ver solo la LETRA

+A
-A
LETRA CON ACORDES

NOTACION

p= pull off
B= bend
s= slide
>= mantener el sonido

------------------------------------------------------------
------------------------------------------------------------

AFINACION

Normal (standar)

------------------------------------------------------------
------------------------------------------------------------


-----
INTRO
-----


Guitarra 1
----------

--------------------------------------------------
--2--2--2-----0--0--0-----3--3--3-----3--3--3-----
--2--2--2--2--1--1--1--2--2--2--2--2--2--2--2--0-- (x4)
-----------2-----------2-----------2-----------0--
--------------------------------------------------
--------------------------------------------------


Guitarra 2 [Con efectos]
----------

--------0-----------------
-----2-----0--------0--2--
--2-----------2--2--------
--------------------------
--------------------------
--------------------------

--------0-------------------------------------
-----2-----0----------3--3--2--2--0--0--------
--2-------------2--2--------------------2--2--
----------------------------------------------
----------------------------------------------
----------------------------------------------

--------0-----------------------------
-----2-----0--------0--2--2--0--2--2--
--2-----------2--2--------------------
--------------------------------------
--------------------------------------
--------------------------------------

--------0-----------------------------0--0--
-----2-----0--------3--3--2--2--------------
--2-----------2--2--------------2--2--------
--------------------------------------------
--------------------------------------------
--------------------------------------------


-------
VERSO 1
-------


Guitarra 1
----------

--------------------------------------2--2--2-----
--2--2--2-----0--0--0-----3--3--3--3--3--3--3-----
--2--2--2--2--1--1--1--2--2--2--2--2--2--2--2--0-- (x4)
-----------2-----------2-----------------------0--
--------------------------------------------------
--------------------------------------------------


Guitarra 2 [Con efectos]
----------

--------0--------------------------------
-----2---------0--2------0--2------0--2--
--2---------2---------2---------2--------
-----------------------------------------
-----------------------------------------
-----------------------------------------
El sitio en que vivíamos


--------0--------------------------------
-----2---------2--0------2--0------2--0--
--2---------2---------2---------2--------
-----------------------------------------
-----------------------------------------
-----------------------------------------
Cuando estábamos saliendo


--------0-----------------------
-----2---------0--2------0--2>--
--2---------2---------2---------
--------------------------------
--------------------------------
--------------------------------
Escuchábamos aviones despegar


-----------------------------
-----2-----3-----2-----3--2--
--2-----2-----2-----2-------- (x2)
-----------------------------
-----------------------------
-----------------------------
Aunque estábamos muy lejos


--------
CHORUS 1
--------


1) (Siento que no te quiero...)


Guitarra 1
----------

[Con distorsión]

--0--0--0--0--0--0--0--0--
--3--3--3--3--0--0--0--0--
--2--2--2--2--1--1--1--1-- (x3)
--0--0--0--0--2--2--2--1--
--0--0--0--0--2--2--2--2--
--------------0--0--0--0--

[Con trémolo]

--5>--
--5>--
--2>--
--2>--
--0>--
------


Guitarra 2 [Con efectos]
----------

--0--0--0--0--0--0--0--0--
--------------------------
-------------------------- (tocar varias veces)
--------------------------
--------------------------
--------------------------


2) [Con efectos]

--5--0------4--0------2--0------2--0-----
-----------------------------------------
--------2---------2---------2---------2-- (x2)
-----------------------------------------
-----------------------------------------
-----------------------------------------


-------
VERSO 2 (Todo esto que dijiste...)
-------


Guitarra 1
----------

--------------------------------------------------
--2--2--2-----0--0--0-----3--3--3--3--3--3--3-----
--2--2--2--2--1--1--1--2--2--2--2--2--2--2--2--0-- (x4)
--2--2--2--2--2--2--2--2--0--0--0--0--0--0--0--0--
--------------------------------------------------
--------------------------------------------------


Guitarra 2 [Con efectos]
----------

--2--0-----2--0-----2--0--2--0--
--------------------------------
--------2--------2-------------- (x3)
--------------------------------
--------------------------------
--------------------------------

--5--0--4--0--5--0--4--0--
--------------------------
--------------------------
--------------------------
--------------------------
--------------------------


--------
CHORUS 2 (Pienso que no te quiero...)
--------


Guitarra 1
----------

[Con distorsión]

--0--0--0--0--0--0--0--0--
--3--3--3--3--0--0--0--0--
--2--2--2--2--1--1--1--1-- (x3)
--0--0--0--0--2--2--2--1--
--0--0--0--0--2--2--2--2--
--------------0--0--0--0--

--5--5--5--5--0--0--0--0--
--5--5--5--5--0--0--0--0--
--2--2--2--2--1--1--1--1--
--2--2--2--2--2--2--2--1--
--0--0--0--0--2--2--2--2--
--------------0--0--0--0--

--0--0--0--0--0--0--0--0--
--3--3--3--3--0--0--0--0--
--2--2--2--2--1--1--1--1-- (x3)
--0--0--0--0--2--2--2--1--
--0--0--0--0--2--2--2--2--
--------------0--0--0--0--

--0--0--0--0--0--0--0--0--
--3--3--3--3--0--0--0--0--
--2--2--2--2--1--1--1--1--
--0--0--0--0--2--2--2--2--
--0--0--0--0--2--2--2--2--
--------------0--0--0--0--

[Con trémolo]

--5>--
--5>--
--2>--
--2>--
--0>--
------


-----------
POST-CHORUS
-----------


1)


Guitarra 1
----------

Tocar lo mismo que la guitarra 1 en la Intro


Guitarra 2 [Con efectos]
----------

--12--12--12--12--12--12--12--12--
----------------------------------
---------------------------------- (tocar varias veces)
----------------------------------
----------------------------------
----------------------------------


Guitarra 3 [Con efectos] (x2)
----------

--0--0--4--4--5--
-----------------
-----------------
-----------------
-----------------
-----------------

--0--0--6s7s4--4--5--
---------------------
---------------------
---------------------
---------------------
---------------------


Guitarra 4 [Con trémolo]
----------

En un momento dado una cuarta guitarra hace esto:

--0--------------
-----2-----------
--------2-----2--
-----------2-----
-----------------
-----------------


2)


Guitarra 1 [Con trémolo]
----------

--2>----2>----0>----2>--
--2>----3>----2>----0>--
--2>----4>----2>----1>--
--4>----4>----2>----2>--
--4>----2>----0>----2>--
--2>----------------0>--

--7--7--7--7--7--7--7--7--0--0--0--0--0--0--0--0--
--8--8--8--8--8--8--8--8--7--7--7--7--7--7--7--7--
--7--7--7--7--7--7--7--7--7--7--7--7--7--7--7--7--
--0--0--0--0--0--0--0--0--0--0--0--0--0--0--0--0--
--------------------------------------------------
--------------------------------------------------


Guitarra 2 [Con efectos]
----------

--5s7--5s4--4s2--0--0--0--2--0--5s7--
-------------------------------------
-------------------------------------
-------------------------------------
-------------------------------------
-------------------------------------

--7--7--7--7--7--7--7--7---------
--------------------------7b>s0--
---------------------------------
---------------------------------
---------------------------------
---------------------------------


-----
FINAL
-----


1) [Minutaje del CD= 2:03/3:06]


Guitarra 1 [Con distorsión] (x7)
----------


--0--0--0--0--0--0--0--0--
--3--3--3--3--0--0--0--0--
--2--2--2--2--1--1--1--1-- (x3)
--0--0--0--0--2--2--2--1--
--0--0--0--0--2--2--2--2--
--------------0--0--0--0--

--5--5--5--5--0--0--0--0--
--5--5--5--5--0--0--0--0--
--2--2--2--2--1--1--1--1--
--2--2--2--2--2--2--2--1--
--0--0--0--0--2--2--2--2--
--0--0--0--0--0--0--0--0--


Guitarra 2 [Con trémolo]
----------

--0>----0>----0>----0>----0>----0>----5>----0>--
--3>----0>----3>----0>----3>----0>----5>----0>--
--2>----1>----2>----1>----2>----1>----2>----1>-- (x7)
--0>----2>----0>----2>----0>----2>----2>----2>--
--0>----2>----0>----2>----0>----2>----0>----2>--
--------0>----------0>----------0>----------0>--


Guitarra 3 [Con efectos]
----------

--12--12--12--12--12--12--12--12--
----------------------------------
---------------------------------- (x8)
----------------------------------
----------------------------------
----------------------------------

--0--0--0--0--0--0--0--0--
--------------------------
-------------------------- (x8)
--------------------------
--------------------------
--------------------------

--0--5--0--5--0--0--0--0--
--------------------------
-------------------------- (x4)
--------------------------
--------------------------
--------------------------

--5--9--0--0--2p0--0--0--0--
----------------------------
---------------------------- (x4)
----------------------------
----------------------------
----------------------------

--0--5--0--2p0--5--5--5--5--
----------------------------
---------------------------- (x4)
----------------------------
----------------------------
----------------------------

--5--9--0--0--2p0--0--0--0--
----------------------------
---------------------------- (x4)
----------------------------
----------------------------
----------------------------

--0--0--0--0--17p16--
---------------------
--------------------- (x4)
---------------------
---------------------
---------------------


Guitarra 4 [Con efectos]
----------

-------------
-------------
------------- (x9)
--7p6--------
-------7--4--
-------------

-------------
-------------
------------- (x2)
--7p6-----7--
-------7-----
-------------

-------------
-------------
------------- (x3)
--7p6--------
-------7--4--
-------------


2) [Minutaje del CD= 3:07/3:20]


Guitarra 1 [Con distorsión]
----------

--2--2--2--2--0--0--
--3--3--3--3--3--3--
--2--2--2--2--2--2-- (x5)
--0--0--0--0--0--0--
--------------------
--------------------

--2>--
--3>--
--2>--
--0>--
------
------


Guitarra 2 [Con trémolo]
----------

--2>--
--3>--
--2>-- (x6)
--0>--
------
------


Guitarra 3 [Con efectos]
----------

--0--0--0--0--17p16--
---------------------
--------------------- (x6)
---------------------
---------------------
---------------------


Guitarra 4 [Con efectos]
----------

---------------
---------------
---------------
--7--6--7b>p6-- (x6)
---------------
---------------


------------------------------------------------------------
------------------------------------------------------------


----------
AEROPUERTO
----------


--------------------
FORMACION DE ACORDES

A (x02220)
A? (x02255)
Asus4 (x02230)
Bm (x24432)
D (xx0232)
D? (xx0770)
Dsus2 (xx0230)
Dsus2/A (x00230)
E (022100)
Emaj7 (021100)
E(VII) (xx0787)
E/Gb (022102)
F#m (244222)
--------------------


-----
INTRO
-----


A E Asus4 Dsus2 (x4)


-------
VERSO 1
-------


A


E D A
En el sitio en que vivías

E D A
Cuando estábamos saliendo

E D A
Escuchábamos aviones despegar

E D Dsus2 D
Aunque estábamos muy lejos


--------
CHORUS 1
--------


Dsus2/A


E Emaj7 Dsus2/A
Siento

E Emaj7 Dsus2/A
Que no te quiero

E
No me importa


A? E Asus4 Dsus2/A (x2)


-------
VERSO 2
-------


A


E D A
Todo eso que dijiste

E D A
Cuando estábamos saliendo

E D A
Que ya no querías verme nunca más

E D Dsus2 D
Que pensé que fuera cierto


--------
CHORUS 2
-------


Dsus2/A


E Emaj7 Dsus2/A
Siento

E Emaj7 Dsus2/A
Que no te quiero

E A?
No me importa
E Emaj7 Dsus2/A
No me importa


E Emaj7 Dsus2/A
Siento

E Emaj7 Dsus2/A
Que no te quiero

E Dsus2/A
No me importa
E
No me importa


A? E Asus4 Dsus2/A


A E Asus4 Dsus2 (x3)


F#m Bm A E/Gb E(VII) D?


-----
FINAL
-----


Dsus2/A E Emaj7 (x3)


A? E Emaj7 Dsus2/A


E Emaj7 Dsus2/A
Lo siento

E Emaj7 Dsus/A
Lo siento

E A? E Emaj7 Dsus2/A
Lo siento

E Emaj7 Dsus2/A
Y no me importa

E Emaj7 Dsus2/A
Y no me importa

E A? E Emaj7 Dsus2/A
Y no me importa


E Emaj7 Dsus2/A
Lo siento

E Emaj7 Dsus/A
Lo siento

E A? E Emaj7 Dsus2/A
Lo siento

E Emaj7 Dsus2/A
Y no me importa

E Emaj7 Dsus2/A
Y no me importa

E A? E Emaj7
Y no me importa


Dsus2/A E Emaj7 (x3)


A? E Emaj7 Dsus2/A


E Emaj7 Dsus2/A
Y no me importa

E Emaj7 Dsus2/A
Y no me importa

E D
Y no me importa


D Dsus2 (x6)


------------------------------------------------------------
------------------------------------------------------------


ACORDES PARA GUITARRA

PIANO UKELELE
B
A
E
Asus4
Dsus2
D
Emaj7
A
F#m
Bm
E/Gb
D


COMENTARIOS

Aún no hay comentarios,

¡escribe el primero!

Para hacer una pregunta o dejar un comentario sobre esta canción, debes estar LOGUEADO

Las canciones más tocadas de Los Planetas

Toca una Canción al Azar de Los Planetas
B
A
E
Asus4
Dsus2
D
Emaj7
A
F#m
Bm
E/Gb
D

Nuestro servidor se demoró 0.2 segundos en generar esta página. Eso fue realmente muy rápido!