Prefiero Bollitos
Los Planetas
Acordes

Subida por eliasib



Otras Versiones
Ver. 2

ENTRENA TU OÍDO MUSICAL CON ESTE JUEGO. ¿QUÉ ACORDE ES?. CLIC AQUÍ PARA JUGAR

Cambiar Cifrado
Americano Latino

Cambiar Tonalidad
-1 +1

Partir Pantalla Imprimir FAQ

Ver solo la LETRA

+A
-A
LETRA CON ACORDES

NOTACION

s= slide
>= mantener el sonido

------------------------------------------------------------
------------------------------------------------------------

AFINACION

Normal (standar)

------------------------------------------------------------
------------------------------------------------------------

FORMACION DE ACORDES

A (x02220)
Asus2 (002200)
D (xx0232)
Dsus2 (xx0230)
E (022100)
E/Gb (022102)

------------------------------------------------------------
------------------------------------------------------------

PROGRESIONES DE ACORDES

Progresion A (P-A)= Asus2 A

Progresión D (P-D)= Dsus2 D Dsus2

------------------------------------------------------------
------------------------------------------------------------


-----
INTRO
-----


-------------------------
-------------------0-----
-----2----------2-----2--
--2-----2---0------------
-------------------------
-------------------------


A> D
----------------------
-------------------0--
-----2----------2-----
--2-----2---0---------
----------------------
----------------------


A D
-------------------------
-------------------0-----
-----2----------2-----2--
--2-----2---0------------
-------------------------
-------------------------


P-A P-D
----------------------
----------------0-----
-----2-------------2--
--2-----2---0---------
----------------------
----------------------


-------
VERSO 1
-------


1)


P-A P-D
-------------------------
-------------------0-----
-----2----------2-----2--
--2-----2---0------------
-------------------------
-------------------------
Tus amigos me han dicho


P-A P-D
----------------------
-------------------0--
-----2----------2-----
--2-----2---0---------
----------------------
----------------------
Que ahora quieres que
vuelva contigo


P-A P-D
-------------------------
-------------------0-----
-----2----------2-----2--
--2-----2---0------------
-------------------------
-------------------------
Me parece algo extraño


P-A P-D
----------------------
----------------0-----
-----2-------------2--
--2-----2---0---------
----------------------
----------------------
Cuáles son las razones
que te han empujado a
este cambio


2)


P-A P-D
-------------------------------
-------------------------0-----
-----2-----2----------2-----2--
--2-----2-----2---0------------
-------------------------------
-------------------------------


P-A P-D
----------------------------
----------------------0-----
-----2-----2-------------2--
--2-----2-----2---0---------
----------------------------
----------------------------


3)


E> E/Gb E
-------------0-----
---------3------3--
-----2-------------
--2----------------
-------------------
-------------------
Tal y como acabaron
las cosas que pienso
...


Dsus2 D
---------------
---------0-----
-----2------2--
--2------------
---------------
---------------
... que me han
sorprendido


E E/Gb E
-------------0-----
---------3------3--
-----2-------------
--2----------------
-------------------
-------------------
Pero algo está claro


Dsus2 D>
-----------
--------0--
-----2-----
--2--------
-----------
-----------
Que prefiero
estar muerto


A volver a tu lado


--------
CHORUS 1 (x4)
--------


A Asus2
------------0------0-----
-----0----------0-----0--
--2-----2----------------
-------------------------
-------------------------
-------------------------


D Dsus2
----------------0-----
-----0------0------0--
--2-----2-------------
----------------------
----------------------
----------------------
A volver a tu lado


-------
VERSO 2
-------


1) (No te habrás olvidado...)


Tocar lo mismo que en Verso 1 parte 1)


2)


Asus2 A
-------------------------
-------------------------
------------2------2-----
--2--2--2-------2-----2--
-------------------------
-------------------------


Dsus2 D
----------------------
----------------0-----
------------2------2--
--0--0--0-------------
----------------------
----------------------


Asus2 A
-------------------------
-------------------------
------------2------2-----
--2--2--2-------2-----2--
-------------------------
-------------------------


Dsus2 D
------------------
------------0-----
---------------2--
--0--0--0---------
------------------
------------------


3) (Todo eso ha pasado...)


Tocar lo mismo que en Verso 1 parte 3)


--------
CHORUS 2
--------


1)


Tocar lo mismo que en Chorus 1


2)


A Asus2
---------------0-----
------------2-----2--
--4--4--4------------
---------------------
---------------------
---------------------


D Dsus2
------------0--------
---------------0-----
--2--2--2---------2--
---------------------
---------------------
---------------------


A Asus2
-----------------0-----
--------------2-----2--
--2s4--4--4------------
-----------------------
-----------------------
-----------------------


D Dsus2
--------------0-----
-----------------0--
--4s2--2--2---------
--------------------
--------------------
--------------------


------------------------------------------------------------


--------0---------0--
-----3------3--3-----
--2------------------
---------------------
---------------------
---------------------


-----------0--0---------0-----
--------3------------------3--
--2--2------------2--2--------
------------------------------
------------------------------
------------------------------


-----------0--0---------0-----
--------3------------------3--
--2--2------------2--2--------
------------------------------
------------------------------
------------------------------


-----------0--0------------0--
--------3---------------3-----
--2--2------------2--2--------
------------------------------
------------------------------
------------------------------


------------------------------------------------------------


-------
VERSO 3
-------


E E/Gb E
------------0-----
---------3-----3--
-----2------------
--2---------------
------------------
------------------


Dsus2 D Dsus2
---------------
---------0-----
-----2------2--
--2------------
---------------
---------------
Todo ha sido un
mal sueño


E E/Gb
------------0-----
---------3-----3--
-----2------------
--2---------------
------------------
------------------
Pero hay algo
cierto


Dsus2 D>
-----------
--------0--
-----2-----
--2--------
-----------
-----------
Que es que
antes de volver
a verte prefiero
estar muerto


--------
CHORUS 3
--------


1) (Que prefiero estar muerto)


Tocar lo mismo que Chorus 1


2)


A Asus2 D Dsus2
------------------------------------------------
------------------------------------------------
--2--2--2s4--4--4--4s6--6--6--6s7--7s9--9--9s2--
------------------------------------------------
------------------------------------------------
------------------------------------------------


A Asus2 D Dsus2
--------------------------------------------
--------------------------------------------
--2--2--2s4--4--4--4s6--6--6--6--7--6--6s2--
--------------------------------------------
--------------------------------------------
---------------------------------------------


-------
VERSO 4
-------


1) (He aprendido a odiarte...)


Tocar lo mismo que en Chorus 3 parte 2)


2)


A Asus2

---------0-----0--
------------------
--2--2------2-----
------------------
------------------
------------------
Y ahora tus golpes
...


D Dsus2
------------0------
-----0-------------
--2-----2------2---
-------------------
-------------------
-------------------
ya no me...


Asus2 A
---------0-----0--
------------------
--2--2------2-----
------------------
------------------
------------------
... hacen daño


D Dsus2
-----------------
--------0--------
--2--2-----2--2--
-----------------
-----------------
-----------------


-----
FINAL
-----


1)


A Asus2
---------------0-----
------------------0--
--2s4>-s2--2---------
---------------------
---------------------
---------------------


D Dsus2
----------------------0-----
--------2--2------0------0--
--2s4>--------s2------------
----------------------------
----------------------------
----------------------------


A Asus2
-----------0----------0--------
--------2----------------0-----
--2s4>--------s2--2---------2--
-------------------------------
-------------------------------
-------------------------------


D Dsus2
-----------0----------0--------
--------2----------------0-----
--2s4>--------s2--2---------2--
-------------------------------
-------------------------------
-------------------------------


2) [Fade Out]


A Asus2
-----0--------
-----------0--
--2-----2-----
--------------
--------------
--------------


D Dsus2
-----0------0--------
---------------0-----
--2-----2---------2--
---------------------
---------------------
---------------------


A Asus2
-----0------------
---------------0--
--2------2--2-----
------------------
------------------
------------------


D Dsus2
------------------------
------------------------
--2--2--2s4--4--4--4s2--
------------------------
------------------------
------------------------


------------------------------------------------------------
------------------------------------------------------------


----------------------------
PREFIERO BOLLITOS (acústico)
----------------------------


------------------------------------------------------------

FORMACION DE ACORDES

A (x02220)
Asus2 (002200)
D (xx0232)
Dsus2 (xx0230)
E (022100)
E/Gb (022102)
G (320033)
G6 (320030)

------------------------------------------------------------


-----
INTRO
-----


A D A D


-------
VERSO 1
-------


Asus2 A Dsus2 D Dsus2


Asus2 A Dsus2 D
Tus amigos me han dicho

Dsus2 Asus2 A Dsus2 D Dsus2
que ahora quieres que vuelva contigo

Asus2 A Dsus2 D
Me parece algo extraño,

Dsus2 Asus2 A Dsus2 D Dsus2 Asus2 A
cuáles son las razones que te han empujado a este cambio


Dsus2 D Dsus2 A Asus2 Dsus2 D Dsus2


E E/Gb E
Tal y como acabaron las cosas

Dsus2 D
que creo que me han sorprendido

E E/Gb E
Pero algo está claro

Dsus2 D
que prefiero estar muerto a volver a tu...


--------
CHORUS 1
--------


A Asus2
... lado

D Dsus2 A Asus2
A volver a tu lado


D Dsus2 A Asus2
A volver a tu lado


D Dsus2 A Asus2 D Dsus2


-------
VERSO 2
-------

Asus2 A Dsus2 D
No te habrás olvidado

Dsus2 Asus2 A Dsus2 D Dsus2
de las cosas que hiciste esos años

Asus2 A Dsus2 D Dsus2
Me pregunto si te han engañado

Asus2 A Dsus2 D Dsus2 Asus2 A
las cosas no cambian de pronto como tu has pensado


Dsus2 D Dsus2 Asus2 A Dsus2 D Dsus2


E E/Gb
Todo eso ha pasado,

Dsus2 D
para mí sólo ha sido un mal sueño

E E/Gb
Pero hay algo claro

Dsus2 D
que prefiero estar muerto a volver a tu...


--------
CHORUS 2
--------


A Asus2
... lado

D Dsus2 A Asus2
A volver a tu lado


D Dsus2 A Asus2
A volver a tu lado


D Dsus2 A Asus2 D Dsus2


---------------------
D Dsus2 G G6 (x4)
---------------------


-------
VERSO 3
-------


E E/Gb


E Dsus2 D Dsus2
Todo ha sido un mal sueño

E E/Gb
Pero hay algo cierto

D
Que es que antes de volver a verte prefiero estar...


---------
CHORUS 3
---------

A Asus2
... muerto

D Dsus2 A Asus2
Que prefiero estar muerto

D Dsus2 A Asus2
Que prefiero estar muerto


D Dsus2 A Asus2 D Dsus2


A Asus2 D
He aprendido a odiarte

Dsus2 A Asus2 D Dsus2
todos estos años

A Asus2 D
Y ahora tus golpes

Dsus2 A Asus2 D Dsus2
ya no me hacen daño


-----
FINAL
-----


A Asus2 D Dsus2 (x4)


------------------------------------------------------------
------------------------------------------------------------


ACORDES PARA GUITARRA

PIANO UKELELE
A
Asus2
D
Dsus2
E/Gb
E
G
G6


COMENTARIOS

Aún no hay comentarios,

¡escribe el primero!

Para hacer una pregunta o dejar un comentario sobre esta canción, debes estar LOGUEADO

Las canciones más tocadas de Los Planetas

Toca una Canción al Azar de Los Planetas
A
Asus2
D
Dsus2
E/Gb
E
G
G6

Nuestro servidor se demoró 0.19 segundos en generar esta página. Eso fue realmente muy rápido!