Tierras altas
Los Planetas
Acordes

Subida por Anny15



Otras Versiones

ENTRENA TU OÍDO MUSICAL CON ESTE JUEGO. ¿QUÉ ACORDE ES?. CLIC AQUÍ PARA JUGAR

Cambiar Cifrado
Americano Latino

Cambiar Tonalidad
-1 +1

Partir Pantalla Imprimir FAQ

Ver solo la LETRA

+A
-A
LETRA CON ACORDES

NOTACION

h= hammer on
s= slide

------------------------------------------------------------
------------------------------------------------------------

AFINACION

Normal (standar)

------------------------------------------------------------
------------------------------------------------------------


-----
INTRO
-----


Guitarra 1 (x2)
----------

-----------------------------------
-----------------------------------
-----------------------------------
-----------------------------------
--7--7--7--7--5--5--5--5--7--5--7--
--5--5--5--5--5--5--5--5--5--5--5--

--------------------------------------
--------------------------------------
--------------------------------------
--------------------------------------
--9--9--9--9--7--5--5--5--7--5--7--5--
--5--5--5--5--5--5--5--5--5--5--5--5--

-----------------------------------
-----------------------------------
-----------------------------------
-----------------------------------
--7--7--7--7--5--5--5--5--7--5--7--
--7--7--7--7--7--7--7--7--7--7--7--

--------------------------------------
--------------------------------------
--------------------------------------
--------------------------------------
--9--9--9--9--5--5--5--5--7--5--7--5--
--7--7--7--7--7--7--7--7--7--7--7--7--


Guitarra 2 [Con efectos]
----------

-----------------5--------------
--7-----7-----------7-----7-----
-----7-----7--7--------7-----7-- (x2)
--------------------------------
--------------------------------
--------------------------------


-----
VERSO (Perdido en este bosque...)
-----


Guitarra 1
----------

Tocar lo mismo que la guitarra 1 en Intro


Guitarra 2
----------

--0-----0-----0-----------0-----0--
-----------------7--7--7-----------
-----7-----7-----------------7----- (x10)
-----------------------------------
-----------------------------------
-----------------------------------


------
CHORUS (Y así es como ha sido siempre...)
------


Guitarra 1
----------

-----------------------------------
-----------------------------------
-----------------------------------
-----------------------------------
--4--4--4--4--4--4--4--5--5--5--5--
--5--5--5--5--5--5--5--5--5--5--5--

-----------------------------------
-----------------------------------
-----------------------------------
-----------------------------------
--7--7--7--7--7--7--5--7--5--7--5--
--5--5--5--5--5--5--5--5--5--5--5--

-----------------------------------
-----------------------------------
-----------------------------------
-----------------------------------
--7--7--7--7--7--7--7--7--7--4--4--
--8--8--8--8--8--8--8--8--8--5--5--

--------------------------------------
--------------------------------------
--------------------------------------
--------------------------------------
--5--5--5--5--5--5--5--5--7--5--7--5--
--7--7--7--7--7--7--7--7--7--7--7--7--


Guitarra 2
----------

-----0-------0-------0--
------------------------
--6-----6h7-----6h7----- (x2)
------------------------
------------------------
------------------------


-----------
POST-CHORUS
-----------


Guitarra 1 (x2)
----------

--------------------------------------------
--------------------------------------------
--------------------------------------------
--------------------------------------------
--5s12--12--12--12--12--12--12--12--14--14--
--------10--10--10--10--10--10--10--10--10--

----------------------------------------------
----------------------------------------------
----------------------------------------------
----------------------------------------------
---9---9---9---9--12--12--12--10--10---9---9--
--10--10--10--10--10--10--10--10--10--10--10--

-------------------------------------
-------------------------------------
-------------------------------------
-------------------------------------
--7--7--7--7--7--7--7--10--10--7--7--
--8--8--8--8--8--8--8---8---8--8--8--

-----------------------------------
-----------------------------------
-----------------------------------
-----------------------------------
--5--5--5--5--5--5--5--5--7--5--7--
--7--7--7--7--7--7--7--7--7--7--7--


Guitarra 2
----------

Tocar lo mismo que la guitarra 2 en Verso


-----
FINAL (Si me ocurriera cualquier cosa...)
-----


Guitarra 1
----------

-----------------------------------
-----------------------------------
-----------------------------------
-----------------------------------
--4--4--4--4--4--4--4--5--5--5--5--
--5--5--5--5--5--5--5--5--5--5--5--

-----------------------------------
-----------------------------------
-----------------------------------
-----------------------------------
--7--7--7--7--7--7--5--7--5--7--5--
--5--5--5--5--5--5--5--5--5--5--5--

-----------------------------------
-----------------------------------
-----------------------------------
-----------------------------------
--7--7--7--7--7--7--7--7--7--7--7--
--8--8--8--8--8--8--8--8--8--8--8--

---------------------------------------
---------------------------------------
---------------------------------------
---------------------------------------
--10--10--10--10--9--9--9--9--7--5--7--
---8---8---8---8--8--8--8--8--8--8--8--

-----------------------------------
-----------------------------------
-----------------------------------
-----------------------------------
--5--5--5--5--5--5--5--5--5--5--5--
--7--7--7--7--7--7--7--7--7--7--7--

--------------------------------------
--------------------------------------
--------------------------------------
--------------------------------------
--5--5--5--5--5--5--5--5--7--5--7--5--
--7--7--7--7--7--7--7--7--7--7--7--7--

-----------------------------------------
-----------------------------------------
-----------------------------------------
-----------------------------------------
--7--7--7--7--5--5--5--5--5--5--5--5--5--
--5--5--5--5--5--5--5--5--5--5--5--5--5--


Guitarra 2
----------

Tocar lo mismo que la guitarra 2 en Chorus


------------------------------------------------------------
------------------------------------------------------------


-------------
TIERRAS ALTAS
-------------


--------------------
FORMACION DE ACORDES

A6 (004200)
Asus2 (002200)
Asus2/C (x32200)
Asus2/C# (042200)
Asus2/D (020200)
Asus2/Gb (024200)
Dsus2/A (x00230)
D/E (x04230)
Esus4 (022200)
--------------------


-----
INTRO
-----


Asus2 A6 Esus4 Asus2/Gb (x2)


-------
VERSO 1
-------


Dsus2/A D/E
Perdido en este bosque

Asus2/D Asus2/Gb Dsus2/A
que los árboles jamás me dejan ver

D/E Asus2/D
sin un lugar donde esconderme

Asus/Gb Dsus2/A
un lugar donde correr


D/E Asus2/D Asus2/Gb


-------
VERSO 2
-------


Dsus2/A D/E
Perdido en este bosque

Asus2/D Asus2/Gb Dsus2/A
sabiendo que no tardará en arder

D/E Asus2/D
y solo quedarán cenizas

Asus2/Gb Asus2/C#
y no me puedo ni mover


--------
CHORUS 1
--------


Asus2 Asus2/C
Así es como ha sido siempre

Asus2/D Dsus2/A
esto es como voy a ser


D/E Asus2/D Asus2/Gb


Dsus2/A D/E Asus2/D Asus2/Gb


-------
VERSO 3
-------


Dsus2/A D/E
Así que estoy en tierras altas

Asus2/D Asus2/Gb
y sé que tengo que caer

Dsus2/A D/E
ya sabes que estas cosas pasan

Asus2/D Asus/Gb Asus2/C#
así que dime que te volveré a ver


--------
CHORUS 2
--------


Asus2 Asus2/C
Dormida dulce como un ángel

Asus2/D Dsus2/A
a las puertas del Edén


D/E Asus2/C Asus2/D


Dsus2/A D/E Asus2/C Asus2/D


-----
FINAL
-----


Asus2/C#


Asus2 Asus2/C
Si me ocurriera cualquier cosa


Asus2 Asus2/D


Asus2/Gb Dsus2/A
si no nos volvemos a ver


------------------------------------------------------------
------------------------------------------------------------


ACORDES PARA GUITARRA

PIANO UKELELE
Asus2
A6
Esus4
D/E
Asus2/D
Asus2/C#


COMENTARIOS

Aún no hay comentarios,

¡escribe el primero!

Para hacer una pregunta o dejar un comentario sobre esta canción, debes estar LOGUEADO

Las canciones más tocadas de Los Planetas

Toca una Canción al Azar de Los Planetas
Asus2
A6
Esus4
D/E
Asus2/D
Asus2/C#

Nuestro servidor se demoró 0.16 segundos en generar esta página. Eso fue realmente muy rápido!