Años de represión
los Porretas
Acordes

Subida por Doli


Más Versiones
Ver. 2 Ver. 3

Cambiar Cifrado
Americano Latino

Cambiar Tonalidad
-1 +1

Partir Pantalla Imprimir FAQ

+A
-A


Ver solo la LETRA
Bueno, aqui traigo una cancion bastante facilona de los porretas...
espero que os guste y que suene bien


INTRO
e ------------------------|
B ------------------------|
G ----7--7--7-------------|
D ----7--7--7--5--7-------| x2
A ----5--5--5--5--7-------|
E -------------3--5-------|

e -------------------------|
B -------------------------|
G ---4-----------7---------|
D ---4----5------7----7----| x2
A ---2----5------5----7----|
E --------3-----------5----|


e ----------------------------------------|---------------------|
B ----------------------------------------|---------------------|
G ---4-----7-----------------4-----7------|-4-----7-----4-------|
D ---4--5--7--7--------------4--5--7--7---|-4--5--7--7--4--5--7-|
A ---2--5--5--7--0-0-0-7-5-4-2--5--5--7---|-2--5--5--7--2--5--7-|
E ------3-----5-----------------3-----5---|----3-----5-----3--5-|
Es aburrido volver la vista hacia atrás
Tiempos prohibidos que no se van a olvidar
Por fin despiertas todo aquello pasó
Y así nos cuentan la represión

e ----------------------------------------|---------------------|
B ----------------------------------------|---------------------|
G ---4-----7-----------------4-----7------|-4-----7-----4-------|
D ---4--5--7--7--------------4--5--7--7---|-4--5--7--7--4--5--7-|
A ---2--5--5--7--0-0-0-7-5-4-2--5--5--7---|-2--5--5--7--2--5--7-|
E ------3-----5-----------------3-----5---|----3-----5-----3--5-|
Fue divertido para un pequeño cabrón
Con mala ostia gritaba ¡Aquí mando yo!
Y así comienza la persecución
Y si tropiezas vas al paredón

PUENTE
e ------------------------|
B ------------------------|
G -4-----7-----4----------|
D -4--5--7--7--4--5--7----|
A -2--5--5--7--2--5--7----|
E ----3-----5-----3--5----|


e ------------------------|
B ------------------------|
G -7-----7-----7----------|
D -7--5--7--7--7--5--7----| x2
A -5--5--5--7--5--5--7----|
E ----3-----5-----3--5----|
No, no pudieron ser peor los años de represión
Basta ya y que no vuelvan
No, no es una equivocación, no hay trampa ni cartón
Los mayores así lo cuentan

e ------------------------|
B ------------------------|
G ----7--7--7-------------|
D ----7--7--7--5--7-------| x2
A ----5--5--5--5--7-------|
E -------------3--5-------|

Durante el solo:
e ---------------------------------------------|
B ---------------------------------------------|
G -4-----7-----4-----7-----4-----7-----4-------|
D -4--5--7--7--4--5--7--7--4--5--7--7--4--5--7-|
A -2--5--5--7--2--5--5--7--2--5--5--7--2--5--7-|
E ----3-----5-----3-----5-----3-----5-----3--5-|


e ----------------------------------------|---------------------|
B ----------------------------------------|---------------------|
G ---4-----7-----------------4-----7------|-4-----7-----4-------|
D ---4--5--7--7--------------4--5--7--7---|-4--5--7--7--4--5--7-|
A ---2--5--5--7--0-0-0-7-5-4-2--5--5--7---|-2--5--5--7--2--5--7-|
E ------3-----5-----------------3-----5---|----3-----5-----3--5-|
Antes si hablabas no se cortaban en dar
Y ahora que puedes nadie te va a escuchar
Por fin despiertas todo aquello pasó
Y así nos cuentan la represión

e ------------------------|
B ------------------------|
G -7-----7-----7----------|
D -7--5--7--7--7--5--7----| x2
A -5--5--5--7--5--5--7----|
E ----3-----5-----3--5----|
No, no pudieron ser peor los años de represión
Basta ya y que no vuelvan
No, no es una equivocación, no hay trampa ni cartón
Los mayores así lo cuentan


e ---------------------|
B ---------------------|
G -7--------7----------|
D -7--5--7--7--5--7----|
A -5--5--7--5--5--7----|
E ----3--5-----3--5----|
Disparan tres veces. Es algo muy normal
Escapa, si puedes
No hay causas pendientes, eso que más nos da
Disparan escapa

FINAL
e -----------------------------------|
B -----------------------------------|
G -7--7--7--------7--7--7---------7--|
D -7--7--7--5--7--7--7--7--5--7---7--|
A -5--5--5--5--7--5--5--5--5--7---5--|
E ----------3--5-----------3--5------|


Bueno, un saludo y que la disfruten


ACORDES PARA GUITARRA

PIANO UKELELE


COMENTARIOS

Aún no hay comentarios,

¡escribe el primero!

Escribe una pregunta, duda o comentario sobre esta canción, te responderemos a la brevedad.

Las más tocadas de los Porretas

Toca una Canción al Azar de los Porretas