Pongamos que hablo de Madrid
los Porretas
Acordes

Subida por guidoe7


Más Versiones
Ver. 2 Ver. 3 Ver. 4 Ver. 5

Cambiar Cifrado
Americano Latino

Cambiar Tonalidad
-1 +1

Partir Pantalla Imprimir FAQ

+A
-A


Ver solo la LETRA
@Tab by Page Piru

GRUPO:PORRETAS
ALBUM:CLASICOS
CANCION:PONGAMOS QUE HABLO DE MADRID


INTRO:(Palm mute)
A

Estrofas:
A
Alla donde se cruzan los caminos
A B
Donde el mundo se puede concevir
B/C#/D D E6
Donde regresa siempre el fugitivo
D
Pongamos que hablo de madrid
D A Punteo 1
de madrid

A
Donde el deseo viaja en ascensores
A B
Un agujero queda para mi
B/C#/D D E6
En el dejao la vida en sus rincones
D
Pongamos que hablo de madrid
D A Punteo 1
de madrid

A
Las niñas ya no quieren ser princesas
A B
Y a los niños les da por perseguir
B/C#/D D E6
Un mar dentro de una vaso de ginebra
D
Pongamos que hablo de madrid
D A Punteo 1
de madrid


Punteo 1:
A A
E|-----------------------------|
B|-----------------------------|
G|-------------4---------------|
D|-----------7---7-5----7------|
A|-------------------7--7------|
E|----------------------5------|


Solillo:
A A B B/C#/D D
E|------------------------------------------------------------------------------|
B|------------------------------------------------------------------------------|
G|--9-9-9-9-7-5-4-5-4-2----9-9-9-9-7-5-2-4----2-4-5-----9-9-9-9-7-6-7-----------|
D|------------------------------------------------------------------------------|
A|------------------------------------------------------------------------------|
E|------------------------------------------------------------------------------|


E6 D A
E|------------------------------------------------------------------------------|
B|------------------------------------------------------------------------------|
G|---11-11-11-9-8-9-----14-14-14-12-11-12---9-10-7-9----------------------------|
D|---------------------------------------------------7-9------7-----------------|
A|-------------------------------------------------------7-9--7-----------------|
E|------------------------------------------------------------5-----------------|


ACORDES PARA GUITARRA

PIANO UKELELE
A
B
D
E6


COMENTARIOS

Aún no hay comentarios,

¡escribe el primero!

Escribe una pregunta, duda o comentario sobre esta canción, te responderemos a la brevedad.

Las más tocadas de los Porretas

Toca una Canción al Azar de los Porretas
A
B
D
E6