Quien tiró la piedra
los Porretas
Acordes

Subida por Adrianfilomeno


Más Versiones
Ver. 2 Ver. 3

Cambiar Cifrado
Americano Latino

Cambiar Tonalidad
-1 +1

Partir Pantalla Imprimir FAQ

+A
-A


Ver solo la LETRA
La cancion esta es muy simple, mientras canta, esceptuando 

al estribillo hace esto:

e--------------------------------------
B--------------------------------------
G------------------------------------
D-------------------------------------
A-------------------------------------
E-----5-5-5-5-5-5--3--5-5-5-5-5-5--3----

Del ´3´ al ´5´ Va con slide. Solo tienes q escucharlo.

El es tribillo es algo así:

e---------------------------------------------------
B---------------------------------------------------
G-----------------------5-5----------------------7-7
D----------7-7----------5-5---------5-5----------7-7
A----------7-7--3-3-3-3-3-3---------5-5--5-5-5-5-5-5
E--5-5-5-5-5-5--------------3-3-3-3-3-3-------------


Esto es lo q haces mientras canta.
Si tienes aguna queja o alguna duda mi e-mail es:
[email protected]


ACORDES PARA GUITARRA

PIANO UKELELE


COMENTARIOS

Aún no hay comentarios,

¡escribe el primero!

Escribe una pregunta, duda o comentario sobre esta canción, te responderemos a la brevedad.

Las más tocadas de los Porretas

Toca una Canción al Azar de los Porretas