Deportivo Palofumeque C.f.
los Porretas
Acordes

Subida por laudur2001


Más Versiones
Ver. 2

Cambiar Cifrado
Americano Latino

Cambiar Tonalidad
-1 +1

Partir Pantalla Imprimir FAQ

+A
-A


Ver solo la LETRA



INTRODUCCION:


e [--------------------------------------------------------------------------------------------------------
B [--------------------------------------------------------------------------------------------------------
G [--------------------------------------------------------------------------------------------------------
D [--------------------------------------------------------------------------------------------------------
A [-----------4--4--5--5--7--7---------4--4--5--5-----------4--4--5--5--7--7---------4--4--5--5--
E [----5--5------------------------5--5-----------------5--5------------------------5--5---------------- x2


ESTROFAS:

Mientras canta hace un punteo con las cuerdas al aire:


e [-------------------------------------------------------------------------------------------
B [-----------------------------------------------------------------------------------------
G [------------------------------------------------------------------------------------------
D [--------------------0-0-0-0-----------------------------------------------------------
A [--------0-0-0-0-----------------------0-0-0-0----------------------------------------
E [------------------------------0-0-0-0-----------------------------------------------------

(El punteo comienza en cada * y acaba en cada +)


*Tenemos un equipazo que tiene por reglamento+

*no tener ni puta idea lo que es un entrenamiento+

*quedamos para jugar los domingos por la mañana+

*pero si no hay balón nos vamos todos de cañas+

(Entre la primera estrofa y la segunda va la introducción pero sólo una vez. Después va el estribillo)

ESTRIBILLO:

D5 A5 E5 A5 D5 A5 E5 A5
e [-----------------------------------------------------------------------------------------------------
B [-----3-----------------------------3---------------------------------------------------------------
G [-----2-----2------------2---------2-----2-------------2-------------------------------------------
D [-----0-----2-----2-----2---------0-----2------2------2-------------------------------------------
A [-----------0-----2-----0----------------0------2-----0-----0-0-0-0-0-0-0-0-0-0-0-0-0-0-----
E [------------------0------------------------------0--------------------------------------------------


e [-----------------------------------------------------------------------------------------------------
B [-----3-----------------------------3---------------------------------------------------------------
G [-----2-----2------------2---------2-----2-------------2-------------------------------------------
D [-----0-----2-----2-----2---------0-----2------2------2-------------------------------------------
A [-----------0-----2-----0----------------0------2-----0--------------------------------------------
E [------------------0------------------------------0--------------------------------------------------

Inmediatamente despues del estribillo viene la introducción pero sólo una vez. Déspuesviene el sólo
que no le he sacado, pero los acordes son los mismos del estribillo.
El resto de la canción es igual. Cuando empieza a cantar lo de ´LOLOLOLOLOLOLO´ da los acordes del estribillo.
Si hay algo con lo que no te aclaras o que crees que está mal, mándame un email a:
[email protected]


ACORDES PARA GUITARRA

PIANO UKELELE
B
G
D
E
A
D5
A5
E5


COMENTARIOS

Aún no hay comentarios,

¡escribe el primero!

Escribe una pregunta, duda o comentario sobre esta canción, te responderemos a la brevedad.

Las más tocadas de los Porretas

Toca una Canción al Azar de los Porretas
B
G
D
E
A
D5
A5
E5