Minivanilis
los Porretas
Acordes

Subida por Zeknew


Más Versiones
Ver. 2 Ver. 3

Cambiar Cifrado
Americano Latino

Cambiar Tonalidad
-1 +1

Partir Pantalla Imprimir FAQ

+A
-A


Ver solo la LETRA
Esta cancion va dedicada al que me puso la primera cancion de este grupo
Un saludo Diego

A ver si tocamos algun dia algo cabronazo jeje



F5 D5 A#5 C5
Na, na, nana, narana na

F5 C5
Aunque no quieras escucharme, aunque no te deje dormir
D5 A#5
Eres como un monigote con mallas y peluquín
F5 C5
Aunque te lo lleves muerto y que te lo den chupao
D5 A#5
Que te lleves al huerto pubertarios granulaos

F5 D5 A#5 C5
Oh oo o oh na, na, nana, narana na

F5 C5
Aunque no entiendas de que hablo, pero a mi me importa un guevo
D5 A#5
Se que te han puesto colorado el anillo de cuero
F5 C5
Todo te ha venido al pico, no hay problemas de garganta
D5 A#5
Mueve la boca jodío que este feo es el que canta

F5 F5 F5 F5 C5 C5 C5 C5
Ni contigo ni por ti, yo duermo con pikolin
D5 D5 D5 D5 A#5 A#5 A#5 A#5
Con la cama son tres mil, pague antes de subir
F5 D5 A#5 C5
Yo no quiero ser así, eres un milivanili maquillao

SOLILLO

e -1-1-1-1--------------------------------------------------------------
b ---------3^5-3--3-----------------------3---3-------------------------
g ------------------5-3-2-3-2-5-3-2-3-2-0---0---------3-3-----------3-3-
d ----------------------------------------------3-2-0-----0-2-3-2-0-----
a ----------------------------------------------------------------------
E ----------------------------------------------------------------------

e ---------------------------------------------|
b ---------------------------------------------|
g --------3-3-----------3----------------------|
d --3-2-0-----0-2-3-2-0------------------------|
a ----------------------------6-3-5-6-5--------|
E ------------------------5*3------------------|

F5 C5
No puedes imaginarte que morro tiene el artista
D5 A#5
Unos se parten el cuello, otros el hueso de la risa
F5 C5
Aunque lleves muchos años, perro viejo en el negocio
D5 A#5
Te encuentras un ñoño de estos y se va la pata abajo

F5 D5 A#5 C5
Oh oo o oh na, na, nana, narana na

F5 C5
Y ahora como estais de moda y os han sacao del armario
D5 A#5
no sabéis que estáis tocando a golpe de talonario
F5 C5
Donde vais con esa pinta con 50 y muchos tacos
D5 A#5
Os cuelga por detrás la malla, parece que vais cagaos


F5 F5 F5 F5 C5 C5 C5 C5
Ni contigo ni por ti, yo duermo con pikolin
D5 D5 D5 D5 A#5 A#5 A#5 A#5
Con la cama son tres mil, pague antes de subir
F5 D5 A#5 C5
Yo no quiero ser así, eres un milivanili maquillao

F5 C5
La cagaste Burlan Caster con la play back hemos topado
D5 A#5
O devuelves el dinero, o te vamos a hinchar a palos

OTRO SOLILLO

e -1--------------------------------------------------------|
b ---3^5-3--------------------------------------------------|
g -------------3--------------------------------------------|
d ---------2-0---3------------------------------------------|
a -----------------3-----5*-3-1--10----10----10----10----6--|
E--------------------8*------------10----10----10----10-----|

F5 D5 A#5 C5 A#5 C5 A#5 C5 F5
Oh oo o oh...


ACORDES PARA GUITARRA

PIANO UKELELE
F5
D5
A#5
C5


COMENTARIOS

Aún no hay comentarios,

¡escribe el primero!

Escribe una pregunta, duda o comentario sobre esta canción, te responderemos a la brevedad.

Las más tocadas de los Porretas

Toca una Canción al Azar de los Porretas
F5
D5
A#5
C5