Bule Bule (Acordes)

Los Rockin Devils

Subida por Elayas

Compartir


Cambiar Cifrado
Americano Latino

Cambiar Tonalidad
-1 +1
Imprimir FAQ
+A
-A

Texto

Desplazamiento

Transportador

Color de Fondo

Archivos

TONALIDAD, TAMAÑO, CIFRADO, SCROL.

Nos renovamos: Ahora puedes cambiar TODO haciendo clic en ICONO de la Guitarra () que aparece en la parte inferior de esta página.


LETRA CON ACORDES

Intro

GCGDCG

G
Les platicaré, de una chica gorda
                                   G
que esta muy curiosa y todos le gritan
       C          G
Bule bule, Bule bule,
       D          C          G
Bule bule, Bule bule, Bule bule,

G
no hay vestido que, le pueda quedar
                          G
y cuando camina parece rodar,
       C          G
Bule bule, Bule bule,
       D          C          G
Bule bule, Bule bule, Bule bule,


G
Cuando va a la playa se mete a bañar
                                G
y toda la gente le empieza a gritar.
       C          G
Bule bule, Bule bule,
       D          C          G
Bule bule, Bule bule, Bule bule.


Este es el acompañamiento con el bajo
(esta parte se toca en las tres partes cuando va el acompañamiento de G)
   G                         G
B|------------------------------------|
G|------------------------------------|
D|-5--5-0-0-3-4-5--5-0-0-3-4-5--------|
A|------------------------------------|

Este es el bajo que va en el coro.
         C                         G
 Bule Bule.................
B|------------------------------------------------------------|
G|-------5--5-0-0-3-4-5--5-0-0-3-4----------------------------|
D|---------------------------------5-5-0-0-3-4-5--5-0-0-3-4---|
A|------------------------------------------------------------|

   D            C            G                   G
B|----------------------------------------------------|
G|--------------5--5-0-0-3-4--------------------------|
D|---------------------------5-5-0-0-3-4-5-3----------|
A|-5-5-0-0-3-4-------------------------------5-3-5----|

Ritmo de la canción
E|--|--|--|-----|--|--|-----|--|--|-----|
A|--|--|--|-----|--|--|-----|--|--|-----|
D|--v--v--v-----v--v--v-----v--v--v-----|
G|-----------|-----------|--------------|
B|-----------|-----------|--------------|
E|-----------v-----------v--------------|

El ritmo es rock, 3 rasgueos a los bajos y uno a los acordes,
espero que no tengan problemas con el bajeo, si tienen dudas o comentarios
haganmelos saber, nos vemos y practiquen mucho.


Video Clip de Bule Bule


ACORDES PARA GUITARRA

PIANO UKELELE
G
C
D


TOP 20: Las más tocadas de Los Rockin Devils


Acordes

Cerrar
G
C
D

22.35

x

89