Esos fueron los tiempos (Acordes)

Los Rockin Devils

Subida por uwuy

Compartir


Cambiar Cifrado
Americano Latino

Cambiar Tonalidad
-1 +1
Imprimir FAQ
+A
-A

Texto

Desplazamiento

Transportador

Color de Fondo

Archivos

TONALIDAD, TAMAÑO, CIFRADO, SCROL.

Nos renovamos: Ahora puedes cambiar TODO haciendo clic en ICONO de la Guitarra () que aparece en la parte inferior de esta página.


LETRA CON ACORDES

Em
Existío una vez un pueblecito  (Riff 1)
E7                        Am
como en las peliculas de amor  (Riff 2)
                            Em
recuerdo que tenía su parquecito (Riff 3)
B7                     Em
y allí paseabamos tu y yo     (Riff 4)

(Parte 2)
Em                                 Am
Fueron los días de amor en que cantabamos
            D7               G
todos los días salíamos a bailar
         Am               Em
eramos jovenes siempre jugabamos
          B7           Em
todo era dicha y felicidad

Em
La ra, ra ra, ra ra
          Am
La ra, ra ra, ra ra
          B7
La ra, ra ra,
                    Em
La ra, ra ra, ra ra ra.


Em
Ahora con el paso de los años  (Riff 1)
E7                          Am
tu y yo nos volvemos a encontrar  (Riff 2)
                       Em
para revivir aquellos tiempos   (Riff 3)
B7                    Em
en aquel fantastico lugar.  (Riff 4)

(PARTE 2)

Em
La ra, ra ra, ra ra,
          Am
La ra, ra ra, ra ra,
          D7                   G
La ra, ra ra, ra ra, ra ra, ra ra,
          Am
La ra, ra ra, ra ra,
          Em
La ra, ra ra, ra ra,
          B7                   Em
La ra, ra ra, ra ra, ra ra, ra ra,

(Riff 5)

Fm
Ha llegado ya la primavera  (Riff 6)
F7                     Bbm
las flores empiezan a brotar  (Riff 7)
                        Fm
las aves regresan a su nido  (Riff 8)
C7                   Fm
las palomas a su palomar  (Riff 9)


Fm                                 Bbm
Fueron los días de amor en que cantabamos
           D#7              G#
todos los días salíamos a bailar
        Bbm               Fm
eramos jovenes siempre jugabamos
          C7            Fm
todo era dicha y felicidad


Fm               G#
La ra, ra ra, ra ra,
                 Bb
La ra, ra ra, ra ra,
                 F
La ra, ra ra, ra raaaa......

Intro
               Em                    Am             B7
E|-15-15-14-14-12-12----12-12-----------------------------|
B|----------------------------15-15--13-13----12-13-12----|
G|-----------------------------------------14-------------|
D|--------------------------------------------------------|
A|--------------------------------------------------------|
E|--------------------------------------------------------|
                 Em
E|---15-14-12-11-12-|
B|12----------------|
G|------------------|
D|------------------|
A|------------------|
E|------------------|

Esta parte se toca junto con el Intro, los acordes van punteados
hacia abajo varias veces guiandose por el requinto.
              Em            Am       B7         Em
E|------------12------------8--------7----------12--|
B|------------12------------10-------7----------12--|
G|------------12------------9--------8----------12--|
D|--------------------------------------------------|
A|--------------------------------------------------|
E|--------------------------------------------------|

                  Em                  Em
E|-0--0-----------0-------------------0---------------------|
B|-------0--0--0--0----0--0--0--0--0--0---------------------|
G|-4--2--0--------0----0--------------0---------------------|
D|----------4--2--2-------4--2--1--2--2---------------------|
A|----------------2-------------------2---------------------|
E|----------------0-------------------0---------------------|
                                      Existío una vez un ...


(Riff1)
E|--7---7--------------7-------------|
B|---------10--8--10-----------------|
G|-----------------------------------|
D|-----------------------------------|
A|-----------------------------------|
E|-----------------------------------|

(Riff 2)
E|----7--8--10--8--7----8------------|
B|-10----------------10--------------|
G|-----------------------------------|
D|-----------------------------------|
A|-----------------------------------|
E|-----------------------------------|

(Riff3)
E|-8-7---------7---------------------|
B|-----10-8-10---10-8---7------------|
G|--------------------9--------------|
D|-----------------------------------|
A|-----------------------------------|
E|-----------------------------------|

(Riff 4)
E|-8--7--6----7-7-7-7-7-7-7-7--------|al final varias veces,
B|-----------------------------------|como si fuera bandurria
E|-----------------------------------|
G|-----------------------------------|
A|-----------------------------------|
E|-----------------------------------|

(Riff 5)
                                                            F#m
E|-----------------------------------------------------------1---|
B|-----------------------------------------------------------1---|
G|-----------------------------------------------------------1---|
D|-----------------------------------------------------------3---|
A|-2-3-2-1-2-2------------0-2-1-2--2-3-2-1-2-2------------0--3---|
E|-------------3-3--3-2-3----------------------3-3--3-2-3----1---|

(Riff5)
                   F#m              F#m
E|-8---------------8-----------------8--|
B|-----11-9-8--9---9---9-8-------9---9--|
G|------------10---10------10-9-10--10--|
D|--------------------------------------|
A|--------------------------------------|
E|--------------------------------------|
                                      a llegado ya..........



(Riff6)
E|--7s8--8-------------8-------------|
B|---------11--9--11-----------------|
G|-----------------------------------|
D|-----------------------------------|
A|-----------------------------------|
E|-----------------------------------|

(Riff 7)
E|----8--9--11--9--8----9------------|
B|-11----------------11--------------|
G|-----------------------------------|
D|-----------------------------------|
A|-----------------------------------|
E|-----------------------------------|

(Riff8)
E|-9-8---------8---------------------|
B|-----11-9-11---11-9----8-----------|
G|--------------------10-------------|
D|-----------------------------------|
A|-----------------------------------|
E|-----------------------------------|

(Riff 9)
E|-9--8--7--8-8-8.........-----------|
B|-----------------------------------|
E|-----------------------------------|
G|-----------------------------------|
A|-----------------------------------|
E|-----------------------------------|
Esta es una de las mejoras canciones de los Rockin Devil´s,
escuchenla bien para que noten los cambios.
Esta canción es para tocarse con 2 guitarras,
pero suena muy bien solo con los acordes, espero les sirva,
manden sus comentarios buenos o malos.


Video Clip de Esos fueron los tiempos


ACORDES PARA GUITARRA

PIANO UKELELE
Em
E7
Am
B7
D7
G
Fm
F7
Bbm
C7
D#7
G#
Bb
F
F#m


TOP 20: Las más tocadas de Los Rockin Devils


Acordes

Cerrar
Em
E7
Am
B7
D7
G
Fm
F7
Bbm
C7
D#7
G#
Bb
F
F#m

03.44

x

89