Una carta al cielo (Acordes)

Lucha Reyes

Subida por Juan1402

Compartir


Cambiar Cifrado
Americano Latino

Cambiar Tonalidad
-1 +1
Imprimir FAQ
+A
-A

Texto

Desplazamiento

Transportador

Color de Fondo

Archivos

TONALIDAD, TAMAÑO, CIFRADO, SCROL.

Nos renovamos: Ahora puedes cambiar TODO haciendo clic en ICONO de la Guitarra () que aparece en la parte inferior de esta página.


LETRA CON ACORDES

|------------------------/
|-------------10--7------/
|-----6-----------7------/
|-7-9---9-7-------7------/
|------------------------/
|------------------------/

|--------------10--7----/
|------7-----------8----/
|-7-9----9-7-------7----/
|-----------------------/
|-----------------------/
|-----------------------/

|--9--7--9-7--9-7---3-------/
|-10--8-10-8-10-8---5--5----/
|----------------------6----/
|---------------------------/
|---------------------------/
|---------------------------/

|-------------5-7-5-4-7-5---/
|------5-7-8----------------/
|---6-----------------------/
|-7-------------------------/
|---------------------------/
|---------------------------/

|--------------------------/
|------------10--7---------/
|-----6----------7---------/
|-7-9---9-7------7---------/
|--------------------------/
|--------------------------/

|----------14-12-10--------/
|-------10----------12-12--/
|----11--------------------/
|-12-----------------------/
|--------------------------/
|--------------------------/

|-10-10-9-12-10-9-10--------------------/
|--------------------------10----12-10--/
|-----------------------11----12--------/
|--------------------12-----------------/
|---------------------------------------/
|---------------------------------------/

|-----------------------10-9-12-10-9-10-/
|--------------------10-----------------/
|-12-9------------11--------------------/
|------11-9-11-12-----------------------/
|---------------------------------------/
|---------------------------------------/
Tocar esta parte para el final
|--------------------------------10-----/
|-----------------------------10--------/
|-12-9---------------------10-----------/
|------11-9-11-12-12-11-12--------------/
|---------------------------------------/
|---------------------------------------/


Video Clip de Una carta al cielo


ACORDES PARA GUITARRA

PIANO UKELELE


TOP 20: Las más tocadas de Lucha Reyes


Toca una Canción al Azar de Lucha Reyes

Acordes

Cerrar

21.20


50