Flotar es caer
Lucybell
Acordes

Subida por arachan4


Más Versiones
Ver. 2

Cambiar Cifrado
Americano Latino

Cambiar Tonalidad
-1 +1

Partir Pantalla Imprimir FAQ

+A
-A


Ver solo la LETRA
Si me revuelco en el lodo que forman tus lágrimas
y yo siendo tierra que pisar
si abro los dedos al aire tomando un respiro
ya sabes, fue sólo estupidez

E|--------------------------------------------------------|
B|--10-10-8-8--10-10-8-8--10/8--10-10--8-8--10-10--8-8----|
G|--9--9--7-7--9--9--7-7--9/7---9--9---7-7--9--9---7-7----|
D|--------------------------------------------------------|
A|--------------------------------------------------------|
E|--------------------------------------------------------|

E|----------------------------------------------------------|
B|--10/8--10-10--8-8--10-10--8-8--10/8--10-10--8-8--10-10r--|
G|--9/7---9--9---7-7--9--9---7-7--9/7---9--9---7-7--9--9r---| x 2
D|----------------------------------------------------------|
A|----------------------------------------------------------|
E|----------------------------------------------------------|

Si veo rodar la vida
tan solo esperando su estúpida detención
si creo que la única forma de flotar es caer
entiende, fue sólo estupidez

E|--------------------------------------------------------|
B|--10-10-8-8--10-10-8-8--10/8--10-10--8-8--10-10--8-8----|
G|--9--9--7-7--9--9--7-7--9/7---9--9---7-7--9--9---7-7----|
D|--------------------------------------------------------|
A|--------------------------------------------------------|
E|--------------------------------------------------------|

E|----------------------------------------------------------|
B|--10/8--10-10--8-8--10-10--8-8--10/8--10-10--8-8--10-10r--|
G|--9/7---9--9---7-7--9--9---7-7--9/7---9--9---7-7--9--9r---| x 2
D|----------------------------------------------------------|
A|----------------------------------------------------------|
E|----------------------------------------------------------|
tenlo claro fue sólo estupidez


INTERLUDIO:

E|----------------------------------------------------|
B|--5-5-5-5-5--6-6--8-8~---5-5-5-5-5--6-6--8-8~-------|
G|----------------------------------------------------|
D|----------------------------------------------------|
A|----------------------------------------------------|
E|----------------------------------------------------|

E|------------------------------------------------|
B|--5-5-5-5-5--1-1--1-1-1~---3-3-3-3-3--3-3-3-----|
G|------------------------------------------------| x 2
D|------------------------------------------------|
A|------------------------------------------------|
E|------------------------------------------------|

Ahora entra la batería. En esta parte suenan 2 guitarras.
Puede perfectamente hacerse con una,pero se necesita
mover harto + los dedos, así que aquí las tabulo por
separado para que se entienda mejor. (Traté de ponerlas
para que se entienda que se tocan al mismo tiempo)

E|-----------------------------------------------------|
B|--5-5-5-5-5--6-6--8-8~----5-5-5-5-5--6-6--8-8~-------|
G|-----------------------------------------------------| 1ª Guit.
D|-----------------------------------------------------|
A|-----------------------------------------------------|
E|-----------------------------------------------------|

E|--------------------3--3-3------------------3--3----|
B|--------------------5--5-5------------------5--5----|
G|----------------------------------------------------| 2ª Guit.
D|----------------------------------------------------|
A|----------------------------------------------------|
E|----------------------------------------------------|

E|------------------------------------------------|
B|--5-5-5-5-5--1-1--1-1-1~---3-3-3-3-3--3-3-3-----|
G|------------------------------------------------| 1ª Guit.
D|------------------------------------------------|
A|------------------------------------------------|
E|------------------------------------------------|

E|----------------------------------------------------|
B|--5-------------------5--5-3--------------3--3------|
G|--5-------------------5--5-4--------------4--4------| 2ª Guit.
D|----------------------------------------------------|
A|----------------------------------------------------|
E|----------------------------------------------------|

(Todo esto se toca dos veces instrumental y después
como base del coro)

CORO:

La Piel, la piel se estira y sólo sé observar
La Piel, la piel se estira y sólo sé observar

E|-----------9~-----9~-----------------9--------------|
B|--10~--10~----10~----10~--10~----10~---10~--10~-----|
G|--9~---9~-----9~-----9~---9~-----9~--------9~-------| x 2
D|----------------------------------------------------|
A|----------------------------------------------------|
E|----------------------------------------------------|

Si me revuelco en el lodo que forman tus lágrimas
y yo siendo tierra que pisar
si creo que la única forma de flotar es caer
entiende, fue sólo estupidez

(Lo que sigue lleva los mismos acordes que antes)

tenlo claro, fue sólo estupidez
tenlo claro, fue sólo estupidez

La Piel, la piel se estira y sólo se observar
La Piel, la piel se estira y sólo se observar
que fue sólo estupidez.


ACORDES PARA GUITARRA

PIANO UKELELE


COMENTARIOS

Aún no hay comentarios,

¡escribe el primero!

Escribe una pregunta, duda o comentario sobre esta canción, te responderemos a la brevedad.

Las más tocadas de Lucybell

Toca una Canción al Azar de Lucybell