Mataz
Lucybell
Acordes

Subida por Josep


Más Versiones
Ver. 2 Ver. 3 Ver. 4 Ver. 5 Ver. 6

Cambiar Cifrado
Americano Latino

Cambiar Tonalidad
-1 +1

Partir Pantalla Imprimir FAQ

+A
-A
Intro :

G/D F Em Gsus7
--------------/--------------/-----7--7--/--2--2--2-----
--10--10--10--/--10--10--10--/-----7--7--/--3--3--3-----
--11--11--11--/--10--10--10--/--9--------/--0--0--0-----
--12--12--12--/--10--10--10--/--9--9--9--/--------------
--10--10--10--/--8---8---8---/--7--7--7--/--------------
--------------/--------------/--0--------/--3--3--3-----


G/D F
Cada vez que veo brillar tus piernas al fin

Em
logro descifrar que puedes ser mas

Gsus7
que un simple espejo

Cada vez que veo brincar a mi alrededor
tus labios sin voz logro entender
Gsus7
que hay solo un beso
G/D - F - Em - Gsus7
Solo al despertar

G/D F
Cada vez que veo brillar tus piernas logro entender

Em
que puede ser mas, que puede ser mas

Gsus7
que un simple espejo solo al despertar

Cada vez que veo brincar a mi alrededor
tus labios sin voz logro entender
que hay solo un beso
G/D - F - Em - Gsus7
solo al despertar

G/D - F - Em - Gsus7
Solo un beso.............. solo al despertar


Csus7 Cm7
Si esto llegase a acabar, si esto llegase a acabar

Em
ve mis ojos, mirame directo a los ojos

D#sus2 Dsus2 Gsus7
yo sabre mentir a Dios por verte hoy


Si esto llegase a acabar, si esto llegase a acabar
ve mis ojos, mirame directo a los ojos
yo sabre mentir a Dios por verte hoy

Punteo :


-------------6--7---14/15--14--------------------
--8--8--7/8--------------------15--13--12/13-----
-------------------------------------------------
-------------------------------------------------
-------------------------------------------------
-------------------------------------------------


-------------10--7---14/15--14-------------------
--8--8--7/8---------------------15--13--12/13----
-------------------------------------------------
-------------------------------------------------
-------------------------------------------------
-------------------------------------------------


-------------6--7--8--9--10-----------------------------------------
--8--8--7/8------------------8--8--8/7-----8--8/7-----8--8/7--------
----------------------------------------7----------7----------7/9---
--------------------------------------------------------------------
--------------------------------------------------------------------
--------------------------------------------------------------------


Si esto llegase a acabar, si esto pereciese acabar
mira mis ojos mirame directo a los ojos
yo sabre mentir a Dios por verte hoy

Si eso llegase a acabar, si esto se va va
mira mis ojos mirame directo a los ojos
yo sabre mentir a Dios por verte hoy

Acordes :

Csus7 : x 3 5 4 5 3
Cm7 : x 3 5 3 4 3
D#sus2 : x 6 8 8 6 6
Dsus2 : x 5 7 7 5 5
(Los demás acordes estan definidos en el Intro)


ACORDES PARA GUITARRA

PIANO UKELELE
G/D
F
Em
Gsus7
Csus7
Cm7
D#sus2
Dsus2


COMENTARIOS

Aún no hay comentarios,

¡escribe el primero!

Escribe una pregunta, duda o comentario sobre esta canción, te responderemos a la brevedad.

Las más tocadas de Lucybell

Toca una Canción al Azar de Lucybell
G/D
F
Em
Gsus7
Csus7
Cm7
D#sus2
Dsus2