Me dejo tentar
Lucybell
Acordes

Subida por CARLOS


Más Versiones
Ver. 2 Ver. 3 Ver. 4

Cambiar Cifrado
Americano Latino

Cambiar Tonalidad
-1 +1

Partir Pantalla Imprimir FAQ

+A
-A
TRANSCRIBED BY ALIBER ESCOBAR


THIS IS ONE OF THE RICHEST SONGS OF THE ALBUM AND IT’S COMPLETE,
ONLY ADJUST THE TIMES AND THAT’S ALL. I’D LIKE TO CONTACT YOU FOR
LUCYBELL RECORDINGS AND IF YOU ARE IN CHILE OR OTHER COUBTRY AND
HAVE EASILY ACCESS TO THEM SEND ME AN E_MAIL
TO: [email protected] SO DO IT FOR ANY QUESTION AND SUGGEST TOO.


PART 1
G---|-----------9----------------|--|-----------9----------9h11----|----
D---|--------9-----11----9h11----|--|--------9-----9h11------------|----
A---|--11------------------------|--|--11--------------------------|----
E---|----------------------------|--|------------------------------|----

3x
G------------9-----------------|-----------9--11--p9-----------||-------
D---------9-----11----9--11----|--------9---------------11p9--*||-------
A---11-------------------------|--11--------------------------*||-------
E------------------------------|-------------------------------||-------

PART2 3x LAST ROUND
G-------------------6--4-----2---||------------------6--4--|------------
D--------------4h6--------6-----*||-------------4h6--------|------------
A---4--4--2h4-------------------*||--4--4--2h4-------------|------------
E--------------------------------||------------------------|------------

PART 3/CHORUS
G------------|--------------|--------------|--------------------7/9-----
D------------|--------------|--2-----------|--------7--6----------------
A---4--4--4--|--4--3--3--3--|-----5--5--5--|--5--5--------7--7----------
E------------|--------------|--------------|----------------------------


LAST CHORUS PART
G---8------||-----|------------|-----------|--------------|-------------
D------9--*||-----|------------|-----------|--------------|--2----------
A---------*||--4--|--4/1--64--|--4--4--4--|--4--3--3--3--|-----5--5----
E----------||-----|------------|-----------|--------------|-------------



G------|--------------------7/9--8-----|-----------|--------------------
D------|--------7--6--7--7----------9--|-----------|-----------5--5-----
A---5--|--5--5-------------------------|--4--4--4--|--4--3--3-----------
E------|-------------------------------|-----------|--------------------



G---5-----|-----------------------|-------------------------------------
D------5--|-----------------------|-------------------------------------
A---------|-----------------------|-----------------4--4--4--4--6--6----
E---------|--2--2--2--2--4--4--5--|--5--5--5--7--7----------------------



G------------------------------------------------------|----------------
D---------------3--3--4--4--4--4--6--6--7--7--7--7--9--|----------------
A---7--7--7--7-----------------------------------------|-----0-----4----
E------------------------------------------------------|----------------



G---------------------------------------------|--4----------------------
D------------------------------3--3--4--4--4--|-----4--------2----------
A---4--4--4--6--6--7--7--7--7-----------------|--------2--3-----3--4----
E---------------------------------------------|-------------------------



G---------------||------------------------------------------------------
D---------------||------------------------------------------------------
A---4--4--4--4--||------------------------------------------------------
E---------------||------------------------------------------------------




========================================================================
== TABLATURE EXPLANATION ==
========================================================================

---------- ---------- ----t---
----5h8--- Hammeron ----(8)--- Ghost ----6--- Tap
---------- ---------- Note --------
----5p8--- Pulloff ---------- --------

---------- ---------- -----p--
----5/8--- Slide Up -----x---- Dead -----7-- Pop
---------- ---------- Note --s-----
----58--- Slide Down ---------- --5----- Slap

---------- ||------|| Repeat --------
----5~~~-- Vibrato ||*----*|| ---5^--- Bend
---------- ||*----*|| --------
---------- ||------|| --------

---------- ---------- --------
-4:------- Time ---------- --------
-4:------- Signature ---------- --------
---------- ---------- --------

Rhythm:
w = whole note W = dotted whole
h = half note H = dotted half
q = quarter note Q = dotted quarter
e = eighth note E = dotted eighth
s = sixteenth note S = dotted sixteenth
t = 32nd note T = dotted 32nd
x = 64th note X = dotted 64th
^ = triplet

========================================================================
== Created with a demo version of BUCKET O´ TAB ==
== tablature creation software for Windows ==
== For more info email [email protected] ==
========================================================================

////////////////// ¿Te Animas? Sube una canción a este sitio. //////////////////

ACORDES PARA GUITARRA

PIANO UKELELE


COMENTARIOS

Aún no hay comentarios,

¡escribe el primero!

Escribe una pregunta, duda o comentario sobre esta canción, te responderemos a la brevedad.

Las más tocadas de Lucybell

Toca una Canción al Azar de Lucybell