Sandy (Acordes)

Mac Salvador

Subida por carlosproagui

Compartir


Cambiar Cifrado
Americano Latino

Cambiar Tonalidad
-1 +1
Imprimir FAQ
+A
-A

Texto

Desplazamiento

Transportador

Color de Fondo

Archivos

-A
+A
Espero que les guste es mi primera transcripción.



/ : slide
~ :vibrato
h :hamer
R :repike

INTRO

e)----1-------------|-------------------|-------1-------------|
B)---3----3/5-3-----|-------------------|------3----3/5-3-----|
G)--2-----------2~--|--R0h2-2h0----0h2--|----2------------2~--|
D)-0----------------|------------3------|--0------------------|
A)------------------|-------------------|---------------------|
E)------------------|-------------------|---------------------|


e)-R3h5--5h3-1-3h5----|-----------------------------|
B)--------------------|-----------------------------|
G)--------------------|-----------------------------|
D)--------------------|--------2-0h2h0----0h2h0-----|
A)--------------------|----0-3----------3-----------|
E)--------------------|-----------------------------|


riff 1

e)--10 10/12-10-10/8------
B)------------------------
G)------------------------
D)------------------------
A)------------------------
E)------------------------

riff 2

e)------------------------
B)------------------------
G)------------------------
D)-3-2-0-----2-0----------
A)---------3-----3-2-3----
E)------------------------
  Dm                                         C
Después de tanto tiempo de andar buscando un amor(riff 1)
   Dm                                      C
de tanto amar en vano he vivido sin encontrar(riff 1)

                     A#                  F
la mujer que fuera ideal y me amara de verdad(riff 2)
                   C
decidido dije una ves
                      A#    A
que ya no volvería a amar jamás


 Dm                           A#
Ahora te conozco y no se que hacer
                    F
ni contigo y ni sin ti(
                     C
porque tu llegaste a mi
             A#
cuando mi corazón
           A        D
esta por morir de soledad

  Dm            F
quiero amarte a ti
            C
y que mi corazón
               A#
ame por ultima vez
            F
y muera por ti
                 F
no me importa si tu
                C
no me quieres a mi
 C                  A#
noooo pero quiero morir
   A         Dm
amándote...sandy

nota
C: Hacerlo como FA MAYOR en el octavo traste.


Video Clip de Sandy


ACORDES PARA GUITARRA

PIANO UKELELE
Dm
C
A#
F
A
D


TOP 20: Las más tocadas de Mac Salvador


Acordes

Cerrar
Dm
C
A#
F
A
D

02.53

x

72