Bombacha Veloz
Macafery y asociados
Acordes

Subida por Eloy


Más Versiones
Ver. 2

Cambiar Cifrado
Americano Latino

Cambiar Tonalidad
-1 +1

Partir Pantalla Imprimir FAQ

+A
-A
Acordes

Am Bm/G F E
E||--0----x----1----0----||
B||--1----3----1----0----||
G||--2----4----2----1----||
D||--x----5----x----x----||
A||--x----x----x----x----||
E||--x----x----x----x----||

Intro : Am - Bm/G

E||--12-----------------|-----------10---13-|--12------|
B||--------13-----------|--------12---------|------13--|
G||-------------14-12h--|--12---------------|----------|
D||---------------------|-------------------|----------|
A||---------------------|-------------------|----------|
E||---------------------|-------------------|----------|


E||--12-----------------|-----------10---13-|--12--------17--15-|
B||--------13-----------|--------12---------|------13-----------|
G||-------------14-12h--|--12---------------|-------------------|
D||---------------------|-------------------|-------------------|
A||---------------------|-------------------|-------------------|
E||---------------------|-------------------|-------------------|

Estrofa 1

Am
Le decían, le llamaban "La muchacha precoz"
Bm/G
Porque siempre transpiraba en la sombra o al sol
Am
Pero nunca la entregaba si no era por amor
F E Am
Aunque en el barrio todos le llamaban "Bombacha Veloz"!
Am
Una tarde se bañaba desnudita en el mar
Bm/G
Unos muchachos juguetones la obsevaban nadar
Am
Le ofrecieron una casa y un bonito reloj
F E Am
Y desde entonces todos le llamaron "Bombacha Veloz"

Pre-coro
Bm/G
Y si te estás enamorando...
Am
Primero gatillando
Bm/G
Y si te sobra el dinero
Am
Llevate un compañero!
Bm/G
Y si no tenés plata
Am
Buscate una barata
Bm/G
Y si hay dolor y mareos
Am
Andá a hacerte un chequeo!

Estribillo
Bm/G Am
Bombacha veloz, bombacha veloz (x4)

INTRO

Estrofa 2
Am
Cuando nadie la observaba, se ponía a cantar
Bm/G
Se afeitaba la entrepierna con las rocas de mar
Am
Pero a veces se olvidaba de pasarse el jabón
F E Am
Y desde lejos podía apreciarse ese olor a salmón!


Pre-coro

Bm/G
Catalina es su nombre
Am
Y seduce a los hombres
Bm/G
Y en las noches de luna
Am
En sus brazos te acuna
Bm/G
Y aunque el novio la reta
Am
Ella acepta tarjeta
Bm/G
Y al que paga con cheque
Am
No le entrega el rosquete
Bm/G
Ella nunca se queja
Am
Si le muerden la oreja
Bm/G
Y tiene mal aliento
Am
Pues le gusta el pimiento
Bm/G
Y si la meten en cana
Am
Ella entrega a la hermana
Bm/G
Cuando baila lambada
Am
HAY QUE VER SU EMPANADA!

Estribillo
Bm/G Am
Bombacha veloz, bombacha veloz (x4)


ACORDES PARA GUITARRA

PIANO UKELELE
Am
Bm/G
F
E


COMENTARIOS

Aún no hay comentarios,

¡escribe el primero!

Escribe una pregunta, duda o comentario sobre esta canción, te responderemos a la brevedad.

Las más tocadas de Macafery y asociados

Toca una Canción al Azar de Macafery y asociados
Am
Bm/G
F
E