Enviado Por Deus
Maneva
Acordes

Subida por JesusMiguelBrizuela
Álbum: Tempo de paz (2009)



Más Versiones de esta Canción | Ver. 2 |

Cambiar Cifrado
Americano Latino

Cambiar Tonalidad
-1 +1

Partir Pantalla Imprimir FAQ

+A
-A

LETRA Y ACORDES

-----------------------------------------------------------------------------------------------------
-----------------------------------------------------------------------------------------------------
------------------------------------------------------------------------------------------------2----
------------------4---------4--2--4--5------------------------4-------5--4--2--4--------5--4-
-----------------------------------------------------------------------------------------------------
---2--2--2-----------------------------------------2--2--2-------------------------------------- (2x)

F#m7 Bm7 F#m7 C#7
Nasceu, mais um guerreiro, Em seu primeiro instante forte por inteiro,
F#m7 Bm7 F#m7 C#7 F#m7 Bm7
Suportando a dor, Que amargurava em seu peito. Foi presente de deus,
F#m7 C#7 F#m7 Bm7 F#m7 C#7
Trazendo ternura e paz, Encantando até o mais forte, Mostrando-se capaz. (2x)

F#m7 Bm7 F#m7 Bm7
Unindo laços, Quebrando preconceitos, Mantendo a fé, Ensinando a ter respeito. (2x)

F#m7 Bm7 F#m7 C#7
Chegou, Trazendo alegria, Mais um guerreiro, Enviado por deus.
F#m7 Bm7 F#m7 C#7
Mostrou, Que nada vale mais, Do que a Fé em nosso criador. (2x)

(interlúdio)
------------------------------------------------------------
------------------------------------------------------------
------------------------------------------4--6--6-------
-----------------------------4--6--7--------------------
--------------------2--------------------------------------
----2---4---5-------------------------------------------

F#m7 Bm7 F#m7 C#7
Nasceu, mais um guerreiro, Em seu primeiro instante forte por inteiro,
F#m7 Bm7 F#m7 C#7 F#m7 Bm7
Suportando a dor, Que amargurava em seu peito. Foi presente de deus,
F#m7 C#7 F#m7 Bm7 F#m7 C#7
Trazendo ternura e paz, Encantando até o mais forte, Mostrando-se capaz.

F#m7 Bm7 F#m7 Bm7
Unindo laços, Quebrando preconceitos, Mantendo a fé, Ensinando a ter respeito. (2x)

F#m7 Bm7 F#m7 C#7
Chegou, Trazendo alegria, Mais um guerreiro, Enviado por deus.
F#m7 Bm7 F#m7 C#7
Mostrou, Que nada vale mais, Do que a Fé em nosso criador.
F#m7 Bm7 F#m7 C#7
Chegou, Trazendo alegria, Mais um guerreiro, Enviado por deus.
F#m7 Bm7 F#m7 C#7
Mostrou, Que nada vale mais, Do que a Fé
F#m7 Bm7 F#m7 C#7 F#m7 Bm7
em nosso criador. Em nosso Criador Em nosso Criador

------------------------------------------------------------
------------------------------------------------------------
------------------------------------------4--6--6-------
-----------------------------4--6--7--------------------
--------------------2--------------------------------------
----2---4---5-------------------------------------------

Recuerda que #AcordesWeb.com se mantiene en línea gracias al aporte de nuestros anunciantes.

Toca una Canción al Azar de Maneva



ACORDES

PIANO UKELELE
F#m7
Bm7
C#7



COMENTARIOS

Aún no hay comentarios,

¡escribe el primero!

Escribe un comentario o pregunta sobre esta canción




Más canciones de Maneva

  • Tempo de Paz
  • Mil Promessas
  • Corre Pro Meu Mar
  • Cheiro Das Flores
  • Sorri Pra Mim
  • Corre Pro Meu Lar (part. Gabriel Elias)
  • Tô de Pé?
  • Teu Olhar
  • Saudades do Tempo
  • Sem Jeito (part. Rael)
  • Enviado Por Deus
  • Louco No Poder
  • Ouro Negro
  • Mar do Meu Mundo
  • Venha
  • Cabelo Bagunçado
  • Meu Pai É Rastafar-I
  • Barulho Dos Teus Carnavais
  • Segura o Som
  • Ode Ao Tempo
  • Siguiente

    F#m7
    Bm7
    C#7

    Nuestro servidor se demoró 0.27 segundos en generar esta página. Que velocidad!