Rezei (Maneva) Acordes



Cambiar Cifrado: |SOL > G| - |G > SOL|

BAJAR UN TONO BAJAR UN SEMI-TONO SUBIR UN SEMI-TONO SUBIR UN TONO PARTIR PANTALLA EN VERTICAL PARTIR PANTALLA EN VERTICAL ¡Ayuda!
-A
+A
Intro: C D Em C D Em

Solo intro (x2)

E|---------------------------------------------|
B|----------------7h8p7----------7s8-7-5---5-5-|
G|------9---9-7-9-------9-7--7---------7-------|
D|--7h9--------------------9--9----------------|
A|---------------------------------------------|
E|---------------------------------------------|

E|----------------------------------------------------|
B|----------------7h8p7----------5-8-7--5-8-7--5-8-7--|
G|------9---9-7-9-------9-7--7------------------------|
D|--7h9--------------------9--9-----------------------|
A|----------------------------------------------------|
E|----------------------------------------------------|

C D Em
Rezei pra agradecer que estou bem, Confesso eu sou capaz de me encantar
C D Em
Com os sons que compõem este amanhecer, Trilha sonora do meu bem estar
C D Em
Fecho os olhos sinto o sol me aquecer, Relembro alguns momentos que passaram
C D Em
Lembro o som que foi fiel em me dizer, Pode acender

C D Em
Rezei também pra ver se você vem, Eu nunca vou cansar de te esperar
C D Em
O tempo não é aliado de nós dois, Correndo ele insiste em passar

C D C Em
E a vida veio me presentear, Com a vida que sempre sonhei levar
C D Em
Poder ter o que o mundo carece ter, Um coração
C D Em
Fazer o bem sem injustiças, ter a paz benção divina, O amor, tem que ser nosso pastor
C D Em
Ser feliz sem a preguiça de um dia ter cobiça De, conquistar teu coração


¡Siguiente!

Toca una Canción al Azar de Maneva

Inicia Sesión para guardar
esta versión como favorita

DESCARGAS:
Descargar
(Rezei.pdf)


Aún no hay comentarios, ¡escribe el primero!

Escribe un comentario o pregunta sobre esta canción:






Más canciones de Maneva

Tempo de Paz
Mar do Meu Mundo
Rezei
Louco No Poder
Moleque de Favela
Ouro Negro
Segredos
Como Vai?
Itanhaém
Um Brinde Guerreiro
Serei
Vem Ver
Reviso Meus Planos
Enviado Por Deus
Preto Pobre Suburbano
Branda Liberdade
Preconceito
Cabelo Pixaim
Luz Que Me Traz Paz
Barulho Dos Teus Carnavais

Siguiente


ABRIR ACORDES

Nuestro servidor se demoró 0.67 segundos en generar esta página. No esta nada mal!