Itxoiten

Negu Gorriak

Acordes

Subida por RandyPiano2100prw


Más Versiones
Ver. 2 Ver. 3

Cambiar Cifrado
Americano Latino

Cambiar Tonalidad
-1 +1

Partir Pantalla Imprimir FAQ

+A
-A
verse

Dm Am Bb C
e---------1-------------------------------------------------
B-----------------------------------------------------------
G-----------------------------------------------------------
D--0---0----------------2--------------3--------------5-----
A-------------0----0----------1----1---------3---3----------
E-----------------------------------------------------------


chorus
G----------------------------------------------------------
D--------7----7------------------------------5----5--------
A--------5----5-------7----7-----8----8------3----3--------
E---------------------5----5-----6----6--------------------



Dm Am Bb C
Amari itxoiten............. ITXOITEN
Dm Am Bb C
Aitak besoetan har nazan............... ITXOITEN
Dm Am Bb C
Amari itxoiten............. ITXOITEN
Dm Am Bb C
Aitak besoetan har nazan............ ITXOITEN
Dm Am Bb C
Lehen eskola egunari............. ITXOITEN
Dm Am Bb C
Dittiak noiz haziko............. ITXOITEN


Dm Am Bb C
ITXOITEN ITXOITEN
Dm Am Bb C
ITXOITEN ITXOITEN
Dm Am Bb C
ITXOITEN ITXOITEN


Examinari ITXOITEN
Lana noiz lortuko ITXOITEN
Norbaiti ITXOITEN
Norbaiti ITXOITEN

Orgsmora heltzeko ITXOITEN
Berak nire denbora bete dezan ITXOITEN
Haurra noiz jaioko ITXOITEN
Umea noiz koxkortuko ITXOITEN
Haurra noiz jaioko ITXOITEN
Umea noiz koxkortuko ITXOITEN

ITXOITEN ITXOITEN ITXOITEN ITXOITEN ITXOITEN ITXOITEN

Bera nire bila noiz etorriko ITXOITEN
Seme-alaben bisitaldiari ITXOITEN
Liberazioari ITXOITEN
Liberazioari ITXOITEN


NUEVO FORO DE MÚSICA

¿Tienes alguna duda, consulta, pregunta, consejo o algo para compartir sobre esta canción?

¡Puedes abrir un hilo en el FORO para que la comunidad te ayude! Hacer una pregunta

ACORDES PARA GUITARRA

PIANO UKELELE
Dm
Am
Bb
C


Las más tocadas de Negu Gorriak

Dm
Am
Bb
C