Kaixo

Negu Gorriak

Acordes

Subida por Carolina88


Más Versiones
Ver. 2 Ver. 3

Cambiar Cifrado
Americano Latino

Cambiar Tonalidad
-1 +1

Partir Pantalla Imprimir FAQ

+A
-A
made in spain! 05/07/99
@Tabulado para GUITARRA y BAJO (*)

NEGU GORRIAK : Kaixo [Guitarra]
----------------------

* El tab de bajo se encuentra al final del documento *


Si no me equivoco, esta canción no es de Negu; creo que es de Delirium
Tremens (también de Euskadi), aunque para mi gusto, la versión de Negu está
mucho mejor.
Los punteos están en el orden en que aparecen en la canción.


Intro (primer punteo):
e |-3-3-3-------3-3--5-5-5-------5-5--7-7-7--3-3-3--7-7--8-8-8--|
B |-------3-3-3------------3-3-3--------------------------------|
G |-------------------------------------------------------------|
D |-------------------------------------------------------------|
A |-------------------------------------------------------------|
E |-------------------------------------------------------------|

e |-7-7-7--5-5--3-3-3-------3-3--5-5-5-------5-5--7-7-7--3-3-3-7-7-8-|
B |-------------------3-3-3------------3-3-3-------------------------|
G |------------------------------------------------------------------|
D |------------------------------------------------------------------|
A |------------------------------------------------------------------|
E |------------------------------------------------------------------|


G C G D G D B C F C
e |------------------------------------------------------------|
B |------------------------------------------------------------|
G |--------5----7-7-7-12-7------------------------10-10--------|
D |--5-5-5-5-5--7-7-7-12-7--9-9-9-9-9-9--10-10-10-10-10-10-10--|
A |--5-5-5-3-5--5-5-5-10-5--9-9-9-9-9-9--10-10-10-8--8--10-10--|
E |--3-3-3---3--------------7-7-7-7-7-7--8--8--8--------8--8---|


(Segundo punteo)

e |-3-3-3-------3-3--5-5-5-------5-5--7-7-7--3-3-3--7-7--8-8-8--|
B |-------3-3-3------------3-3-3--------------------------------|
G |-------------------------------------------------------------|
D |-------------------------------------------------------------|
A |-------------------------------------------------------------|
E |-------------------------------------------------------------|

e |-7-7-7--5-5--7-7-7--3-3-3--7-7--8-8-8--5-5-5--8-8--10-10-10--|
B |-------------------------------------------------------------|
G |-------------------------------------------------------------|
D |-------------------------------------------------------------|
A |-------------------------------------------------------------|
E |-------------------------------------------------------------|

e |--7-7-7-10-10--12----|
B |---------------------|
G |---------------------|
D |---------------------|
A |---------------------|
E |---------------------|



(Algo del tercer punteo)

e |-3-3-3-------3-3--5-5-5-------5-5--7-7-7--3-3-3--7-7--8-8-8--|
B |-------3-3-3------------3-3-3--------------------------------|
G |-------------------------------------------------------------|
D |-------------------------------------------------------------|
A |-------------------------------------------------------------|
E |-------------------------------------------------------------|

e |-7-7-7--5-5--7-7-7--3-3-3--7-7--8-8-8--5-5-5--8-8--10-10-10--|
B |-------------------------------------------------------------|
G |-------------------------------------------------------------|
D |-------------------------------------------------------------|
A |-------------------------------------------------------------|
E |-------------------------------------------------------------|

e |--7-7-7-10-10--12--8-15--8-15-14-8-12--------------|
B |--------------------------------------12-13-12-10--|
G |---------------------------------------------------|
D |---------------------------------------------------|
A |---------------------------------------------------|
E |---------------------------------------------------|
(ya no sé lo que hace, lo siento)



Podeis mandar vuestras sugerencias a made in spain!

Jordi Sabater <[email protected]>

Si alguien acaba de sacar el tabulado entero, por favor que me
lo mande; y si a alguien le sirve esto, me alegro mucho.

Para cualquier duda o lo que sea, podéis encontrarme en
>[email protected]<

==============================================================================
******************************************************************************
==============================================================================

NEGU GORRIAK : Kaixo [Bajo]
----------------------

Cuando Fermín canta y se oyen los punteos de antes, el bajo hace lo siguiente:

G |------------------------------------------------|
D |------------------------------------------------|
A |-----------5555555--22222222--33333333----------|
E |--33333333--------------------------------------|


G |------------------------------------------------------|
D |-------------------5----------------------------------|
A |--------3----5-5-5---5---------------------8-8--------|
E |--3-3-3---3-------------7-7-7-7-7-7--8-8-8-----8--8---|


Si alguien acaba de sacar el tabulado entero, por favor que me
lo mande; y si a alguien le sirve esto, me alegro mucho.

Para cualquier duda o lo que sea, podéis encontrarme en
>[email protected]<


Podeis mandar vuestras sugerencias a made in spain!

Jordi Sabater <[email protected]>


NUEVO FORO DE MÚSICA

¿Tienes alguna duda, consulta, pregunta, consejo o algo para compartir sobre esta canción?

¡Puedes abrir un hilo en el FORO para que la comunidad te ayude! Hacer una pregunta

ACORDES PARA GUITARRA

PIANO UKELELE
G
C
D
B
F


Las más tocadas de Negu Gorriak

G
C
D
B
F