Already One
Neil Young
Acordes

Subida por icaro277
Álbum: Comes a Time ( 1978)


Más Versiones
Ver. 2 Ver. 3 Ver. 4 Ver. 5 Ver. 6
+A
-A
Intro: D     Dmaj7     D6      A7      D     Dmaj7     D6      A7 

TAB Legend:
_5 hammer on/pull off
/7 slide up
5 slide down
5= vibrato(single notes)/sustain
5^ bend up
5` slight bend
5. staccato note
^(10) ghost release pick after bend, then release

D Dmaj7 Em7
What can I do? What can I say?
Cmaj7 A7 D Dmaj7 D6 A7
runnin down this suspicious hi-way
D Dmaj7 Em7 d|-------2-/4-----
I can't forget how love let me down
Cmaj7 A7 D Dmaj7 D6 A7
and when we meet it still gets in my way
D Dmaj7 G Gmaj7
Already one. Already one.
A7 G A7
Now only time can come between us cause we're
D Dmaj7 G Gmaj7
already one. Our little son
A7 D Dmaj7 D9
won't let us forget
D Dmaj7 D6 A7 D Dmaj7 D6 A7
D Dmaj7 Em7 d|-------2-/4-----
Your laughing eyes Your crazy smile
Cmaj7 A7 D Dmaj7 D6 A7
every time I look in his face
D Dmaj7 Em7
I can't believe how love last awhile
Cmaj7 A7 D Dmaj7 D6 A7
and looks like forever in the first place But we're
D Dmaj7 G Gmaj7
Already one. Already one.
A7 G A7
Now only time can come between us cause we're
D Dmaj7 G Gmaj7
already one. Our little son
A7 D Dmaj7 D9
won't let us forget
D Dmaj7 D6 A7 D Dmaj7 D6 A7
Solo (in standard tuning)
D Dmaj7 Em7
|-13_12_13==_12-|--swell^(10)---|----15-13=======--------------|
|---------------|-----------9=--|----------13====--------------|
|---------------|---------------|--15---------13==---9-115==|
|---------------|---------------|--------------|-----( soft )--|
|---------------|---------------|--------------|---------------|
|---------------|---------------|--------------|---------------|

Cmaj7 A7 D Dmaj7 D6 A7
|---------------|----8-9-11-----|---------------|-15==17_15-15--|
|------8.-------|-----------5/7`|---------------|-------------16==
|-------9_8===^==---------------|---------------|---------------|
|---------------|---------------|---------------|---------------|
|---------------|---------------|---------------|---------------|
|---------------|---------------|---------------|---------------|

D Dmaj7 Em7
|-11--11--11=-------------------|------15-13==--|---------------|
|---10-10-10=10==------------|-----11------13==-------7/9-12-|
|---------------|---------------|-9/11----------|---------------|
|---------------|---------------|---------------|---------------|
|---------------|---------------|---------------|---------------|
|---------------|---------------|---------------|---------------|

Cmaj7 A7 D Dmaj7 D6 A7
|14=======\--7====-------11/13------------15/17-------/14-/12==
|----------------------10/11----|---------------|---14/16-------|
|---------------|---------------|--------------{ violion }--|
|---------------|---------------|---------------|---------------|
|---------------|---------------|---------------|---------------|
|---------------|---------------|---------------|---------------|
D Dmaj7 Em7
In my new life I'm traveling light
Cmaj7 A7 D Dmaj7 D6 A7
eyes wide open for the next move
D Dmaj7 Em7 d|-------2-/4-----
I can't go wrong 'til I get right
Cmaj7 A7 D Dmaj7 D6 A7
but I'm not fallin' back in the same groove

ACORDES PARA GUITARRA

PIANO UKELELE
D
Dmaj7
D6
A7
Em7
Cmaj7
G
Gmaj7
D9


COMENTARIOS

Aún no hay comentarios,

¡escribe el primero!

Escribe una pregunta, duda o comentario sobre esta canción, te responderemos a la brevedad.

Las más tocadas de Neil Young

Toca una Canción al Azar de Neil Young
D
Dmaj7
D6
A7
Em7
Cmaj7
G
Gmaj7
D9