Heart of Gold
Neil Young
Acordes

Subida por cachalfa
Álbum: Harvest ( 1972)


Más Versiones
Ver. 2 Ver. 3 Ver. 4 Ver. 5 Ver. 6
+A
-A
INTRO:  
Em7 D Em
E|--------0---0---0---0---0---0---0-|-2---(2)---2---0-----------------|
B|--------3---3---3---3---3---3---3-|-3---(3)---3---0-----------------|
G|--------0---0---0---0---0---0---0-|-2---(2)---2---0-----------------|
D|--------2---2---2---2---2---2---2-|-0---(0)---0---2------------0h2--|
A|--------2---2---2---2---2---2---2-|---------------2-------0h2-------|
E|-(0)-0--0---0---0---0---0---0---0-|---------------0-----------------|

Em7 D Em
E|--------0---0---0---0---0---0---0-|-2---(2)---2---0-----------------|
B|--------3---3---3---3---3---3---3-|-3---(3)---3---0-----------------|
G|--------0---0---0---0---0---0---0-|-2---(2)---2---0-----------------|
D|--------2---2---2---2---2---2---2-|-0---(0)---0---2------------0h2--|
A|--------2---2---2---2---2---2---2-|---------------2-------0h2-------|
E|--0-----0---0---0---0---0---0---0-|---------------0-----------------|


Em7 D Em
E|--------0---0---0---0---0---0---0-|-2---(2)---2---0-----------------|
B|--------3---3---3---3---3---3---3-|-3---(3)---3---0-----------------|
G|--------0---0---0---0---0---0---0-|-2---(2)---2---0-----------------|
D|--------2---2---2---2---2---2---2-|-0---(0)---0---2------------0h2--|
A|--------2---2---2---2---2---2---2-|---------------2-------0h2-------|
E|--0-----0---0---0---0---0---0---0-|---------------0-----------------|



VERSO (MESMA BASE PARA O RIFF DE GAITA):

Em C D G
E|----------------0---0--(0)-----|------2---(0)--3---3---(0)-------|
B|----------------1---1--(0)-----|------3---(0)--0---0---(0)-------|
G|---------0------0---0--(0)-----|--2---2---(0)--0---0---(0)-------|
D|---------2------2---2----------|------0--------0---0-------------|
A|-------2---0----3---3----------|-0-------------2---2-------------|
E|---0---------------------------|---------------3---3-------------|


"And I'm getting old".

C Am7 G
E|--0--0--x--0--0--0--x--0--0--0--3--|
B|--1--1--x--1--1--1--x--1--1--1--0--|
G|--0--0--x--0--0--0--x--0--0--0--0--|
D|--2--2--x--2--2--2--x--2--2--2--0--|
A|--3--3--x--3--3--3--x--3--3--0--2--|
E|--x--x--x--x--x--x--x--x--x--x--3--|


Em C D G
I want to live, I want to give
Em C D G
I've been a miner for a heart of gold
Em C D G
It's these expressions I never give
Em7 G
That keep me searching for a heart of gold
C Am7 G
And I'm getting old
Em7 G
That keep me searching for a heart of gold
C Am7 G
And I'm getting old


Em C D G
I've been to Hollywood, I've been to Redwood
Em C D G
I've crossed the ocean for a heart of gold
Em C D G
I've been in my mind, it's such a fine line
Em7 G
That keeps me searching for a heart of gold
C Am7 G
And I'm getting old
Em7 G
That keeps me searching for a heart of gold
C Am7 G
And I'm getting old

FINAL:

Em D Em
Keep me searching for a heart of gold
Em D Em
You keep me searching and I'm getting old
Em D Em
Keep me searching for a heart of gold
Em G C
I've been a miner for a heart of gold

Am7 G
E|--------------3------------------|
B|--------------0------------------|
G|--------------0------------------|
D|--------------0------------------|
A|-----3--2--0--2------------------|
E|--------------3------------------|////////////////// ¿Te Animas? Sube una canción a este sitio. //////////////////

ACORDES PARA GUITARRA

PIANO UKELELE
Em7
D
Em
C
G
Am7


COMENTARIOS

Aún no hay comentarios,

¡escribe el primero!

Escribe una pregunta, duda o comentario sobre esta canción, te responderemos a la brevedad.

Las más tocadas de Neil Young

Toca una Canción al Azar de Neil Young
Em7
D
Em
C
G
Am7