Barstool Blues
Neil Young
Acordes

Subida por rayegarcia
Álbum: Zuma ( 1975)


Más Versiones
Ver. 2 Ver. 3 Ver. 4 Ver. 5 Ver. 6
+A
-A
TAB Legend:
= sustain OR vibrato
0_3 hammer-on(h)/pull-off(p)
slide down
/ slide up
. staccato note
^ bend full
` half OR slight bend
0:00
| ----4x4--5--4-- | -----4---5--4-- | -----4--5--4--- | ----x4==4==4==- |
| --5-5---------- | ---5-5---5--5-- | ---5-5--5--5--- | -----------5--- |
| --4------------ | ---4--------4-- | 4==4-4-----4--- | -----------4--- |
| 2==------------ | 2==------------ | 2==------------ | 2==------------ |
| 2==------------ | 2==------------ | 2==------------ | 2==------------ |
D2==------------ | 2==------------ | 2==------------ | 2==------------ |
|
| --------------- | 4=======------- | --------------- | 4=======------- |
| --------------- | 5=======------- | --------------- | 5=======------- |
| --------------- | 4=======------- | --------------- | 4=======------- |
| 2=======------- | --------------- | 2=======------- | 2-------------- |
| 2=======------- | --------------- | 2=======------- | --------------- |
D2=======------- | --------------- | 2=======------- | --------------- |
0:09
B F#m7 E
If I could hold on to just one thought for long enough to know
B F#m7 E
Why my mind is moving so fast and the conversation is slow
A E
Burn off all the fog and let the sun through to the snow
B
Let me see your face again
A E /
before I have to go.
----------------
----------------
------2==-x-----
--5/7-----------
------------2===
------------2===
0:45
B F#m7 E
I have seen you in the movies and in those magazines at night
B F#m7 E
I saw you on the barstool when you held that glass so tight
A E
And I saw you in my nightmares, but I'll see you in my dreams
B
And I might live a thousand years before
A E /
I know what that means
----------------4==4=-
----------------5==5=-
------2==-x-----4===--
--5/7-----------------
------------2=====----
------------2=====----
1:25 ???
B A
| --2--4--2==------- | 2==-------2==---- | ----------------- |
| --2--5-----5--5==5----5----5---5---- | -----------5-2-5==
| --------------4======---4----------- | -4-4_2===--4----- |
| ------------------ | ----------------- | ----------------- |
| ------------------ | ----------------- | ----------------- |
| ------------------ | ----------------- | ----------------- |
E
| -------4---------- | -------4--4------ |
| -----5-5---------- | -------5--5------ |
| -----4------------ | ----4--4--4------ |
| 2-2==2=---5/777---2==--2-------=---- |
| 2-2==-------------2==--------------- |
| --2==-------------2==--------------- |
1:36
B F#m7 E
Once there was a friend of mine who died a thousand deaths
B F#m7 E
His life was filled with parasites and countless idle threats
A E
He trusted in a woman and on her he made his bets
B
Once there was a friend of mine
A E /
who died a thousand deaths
------------------------
------------------------
--------2---------------
---5/77--(2)---66-88-99-
----------2==-----------
----------2==-----------
2:14
A
/12----------12_14_12 | -------------------- | -----17===16--14---- |
| ---12-12_14--------- | --14--14=====-17===17===--------------17- |
| -------------------- | -------------------- | -------------------- |
| -------------------- | -------------------- | -------------------- |
| -------------------- | -------------------- | -------------------- |
| -------------------- | -------------------- | -------------------- |
E B
12_14-14_15==---20===20-20===-20===-20====21.21=20==-21===20=== |
| -------------------- | -------------------- | -------------------- |
| -------------------- | -------------------- | -------------------- |
| -------------------- | -------------------- | -------------------- |
| -------------------- | -------------------- | -------------------- |
| -------------------- | -------------------- | -------------------- |
A E
21^-21====--20_18.--- | 16_18_16-14_12_(14)- | -------------------- |
| -------------------- | -------------------- | -------------------- |
| -------------------- | -------------------- | -------------------- |
| -------------------- | -------------------- | ----7`-7`-7`-6------ |
| -------------------- | -------------------- | 2========------7--7` |
| -------------------- | -------------------- | 2==========--------- |
E
| --------------- | --------------- | --------------- | --------------- |
| --------------- | --------------- | --------------- | --------------- |
| --------------- | --------------- | --------------- | --------------- |
| -----6-7-6-7--- | ---7`-7`-7`-6-- | ---6-7-6-7-6--- | ---6-7-6-7-6--- |
| 2------------7-(2)------------7 | -------------7- | -------------7- |
| 2=========----- | 2=========----- | 2=========----- | 2=========----- |
3:00
| --------------- | --------------- | --------------- | |
| --------------- | --------------- | --------------- | |
| --------------- | --------------- | ------x-------- | |
| --6_7-6_7-6---- | --------------- | ----------x---- | |
| -------------7- | --------------- | --------------- | |
| 2========------ | 2======================-------- | |

ACORDES PARA GUITARRA

PIANO UKELELE
D2
B
F#m7
E
A


COMENTARIOS

Aún no hay comentarios,

¡escribe el primero!

Escribe una pregunta, duda o comentario sobre esta canción, te responderemos a la brevedad.

Las más tocadas de Neil Young

Toca una Canción al Azar de Neil Young
D2
B
F#m7
E
A