Bad Fog of Loneliness
Neil Young
Acordes

Subida por MatiasRolon1301


Más Versiones
Ver. 2 Ver. 3 Ver. 4 Ver. 5 Ver. 6
+A
-A
(afinação 1/2 tom abaixo)

(intro)
C D
|---------0---0-----0---2---2---2---2-|
|---1-----1---1-----1---3-3-3---3---3-|
|---0-------0---0h2-------2-----------|
|-----0h2-------------0---------------|
|-3---------------------------0---2---|
|-------------------------------------|

C D
|---------0---0-----0---2---2---2-----2-|
|---1-----1---1-----1---3-3-3---3-----3-|
|---0-------0---0h2-------2-------------|
|-----0h2-------------0-----------------|
|-3---------------------------0---0h2---|
|---------------------------------------|

(verse)
C C/G D C C/G D
|---0-----------0---2---2---2-----2-|---0-----0---------0---2---2---2-----|
|---1---1---1---1---3-3-3---3-----3-|---1-----1---1-1---1---3-3-3---3-----|
|-0---0-0---0-0-------2-------------|-0-------0---0-0h2-------2-----------|
|-2---2---2---2---0-----------------|-2---0h2---2-2-------0---------------|
|-3-------3---------------0---0h2---|-3---------3-----------------0---0h2-|
|---------3-------------------------|-----------3-------------------------|

G G/F# E Bm7 Am7 Am7/G Am7/F# Am7/F C G
|---3-3---------0-0---------2-2-------|---0-0---0-0---0-0---0-0-0-0-3-|
|---3-3---------0-0---0-----3-3---3---|---1-1---1-1---1-1---1-1-1-1-3-|
|---0-0---0---0-0-0-0-2---2-2-2-2-2-2-|-0-0-0---0-0---0-0---0-0-0-0-0-|
|-0-----0-0-0-2-----2-2-2-4-----4-4-4-|-2-------------------2-2-0-2-0-|
|-2-----2-2-2-2-----2---2-2---------2-|-0-----0-----0-----0---3-3-3-2-|
|-3-----3---2-0---------0-------------|-------3-----2-----1---------3-|

(between Verse 1 and 2)
G G/B
|-------3----|
|---3---3----|
|---0---0----|
|-0-0-0------|
|-2---2------|
|-3----------|

(refrain)
D C Bm7 Am7
So long woman ...
D C G G/A G/B D
So much pain ...
C D G G/F# Em
Come back baby I ...

(interlude bit)
C D
|---------0---0-----0---2---2-----2---2-|
|---1-----1---1-----1---3-3-3-----3---3-|
|---0-------0---0h2-------2-------------|
|-----0h2-------------0-----------------|
|-3---------------------------0h2---2---|
|---------------------------------------|

C D
|---------0---0-----0---2---2-----2----2-|
|---1-----1---1-----1---3-3-3-----3----3-|
|---0-------0---0h2-------2--------------|
|-----0h2-------------0------------------|
|-3---------------------------0h2---2----|
|----------------------------------------|

(intro)
(erse)
(between vs 1 and 2)
(verse)
(refrain)
(interlude bit)
(verse)////////////////// ¿Te Animas? Sube una canción a este sitio. //////////////////

ACORDES PARA GUITARRA

PIANO UKELELE
C
D
C/G
G
G/F#
E
Bm7
Am7
Am7/G
Am7/F#
G/B
G/A
Em


COMENTARIOS

Aún no hay comentarios,

¡escribe el primero!

Escribe una pregunta, duda o comentario sobre esta canción, te responderemos a la brevedad.

Las más tocadas de Neil Young

Toca una Canción al Azar de Neil Young
C
D
C/G
G
G/F#
E
Bm7
Am7
Am7/G
Am7/F#
G/B
G/A
Em