Crime In The City
Neil Young
Acordes

Subida por Belensilva


Más Versiones
Ver. 2 Ver. 3 Ver. 4 Ver. 5 Ver. 6
+A
-A
This is my first tab that I did by ear so yeah...

The whole song is pretty distorted so put your "gain" & "distortion" all the way up.
the tabs I found had the opening played with messed up chords that all sounded terrible, I
tabbed it so listeners can identify it.

~ = let it ring a little
b = bend
h = hammer on
p = pull off

Intro

Listen to the song to get the pattern, it really just sounds like messy picking, but
well with the distortion.

--0h2-2-0-2-2p0-2-0-0~-3---3-0-0------0--0-0-0-0~-3---3----|
--0-0-0-0-0-0-0-0-0-0~-0-0---0-3b-2-3-2b-0-2-0-0~-0-0------|
--0-0---0-----------0~-0-0---0-0--0-0-0--0-0-0-0~-0-0------|
--------------------0~-------0-----------------0~----------|
--------------------0~-------------------------3~----------|
-----------------------------------------------2~----------|


Verse

Similar to Intro

--0h2-2-0-2-2p0-2-2-0~-3-|
--0-0-0-0-0-0-0-0-0-0~-0-| Mess around with that...Improvize!
--0-0---0-----------0~-0-|
--------------------0~-0-|
--------------------0~---|
-------------------------|

0:42 "His best friend was a robber"

-------------|
-------------|
-------------|
-777-0--2~---|
-777-0--2~---|
-555-0--0~---|

0:57 "The bungalo was surrounded"

-------------|
-------------|
-------------|
-777-0--5~---|
-777-0--5~---|
-555-0--3~---|

Picking part again...

1:26 ... Strum The A Chord... (Strum open strings twice in the middle...listen to the song to hear it.)

A
-0------------|
-2------------|
-2------------|
-2------------|
-0------------|
-0------------|

1:32

-------------------------------------|
-------------------------------------|
-------------------------------------|
-777-55-77-----| or |-----444-22-44--|
-777-55-77----------------444-22-44--|
-555-33-55----------------222-00-22--|

( I'm not going to tab the solo because I suck at solos and it will take longer than 5 minutes :P )


Keep Repeating all of this Stuff as it is in the song...

Then...around 3:50

---------------------|
---2-----2b----------|
-2---4~------2-2s4~--| x 2
---------------------|
---------------------|
---------------------|

4:18
-11b~-11b~-11-9---------------------------------------------------|
--------------12-10-12-12s14~---------------------13s15-15b~------|
-----------------------------------------12-12-14-----------------|
-----------------------------12s14--12-14-------------------------|
------------------------------------------------------------------|
------------------------------------------------------------------|

-------------------------------|
-15s17-------------------------|
-------12-11-9-------9---------|
---------------12-11-----------| Then go Into Strumming A again
------------------------12-----|
-------------------------------|

Yup that's all Im going to do...
So listen to the song, learn it, and play it...this song requires a lot of modifications
the amp for the right sound...
Keep on Rockin in the Free World
Cherio

This Song was Tabbed By: eMpTy, aka chest, aka Donkey Djck or Choda Monkey////////////////// ¿Te Animas? Sube una canción a este sitio. //////////////////

ACORDES PARA GUITARRA

PIANO UKELELE


COMENTARIOS

Aún no hay comentarios,

¡escribe el primero!

Escribe una pregunta, duda o comentario sobre esta canción, te responderemos a la brevedad.

Las más tocadas de Neil Young

Toca una Canción al Azar de Neil Young