Dreamin' Man
Neil Young
Acordes

Subida por cirimini
Álbum: Harvest Moon ( 1992)


Más Versiones
Ver. 2

Cambiar Cifrado
Americano Latino

Cambiar Tonalidad
-1 +1

Partir Pantalla Imprimir FAQ

+A
-A
G                Em7                C9    C9   /
I'm a dreamin' man, Yes that's my problem
G Em7 C9 C9 /
I can't tell when I'm not being real.
G Em7 C9 C9 /
In the meadow dusk, I park my Aerostar
G Em7 C9 C9 /
With a loaded gun and sweet dreams of you.

Refrão:

G (abafando)
I'll always be a dreamin man
Em7 (abafando)
I don't have to understand
C D /
I know it's alright
___________________________________________________
Depois do refrão: |
|
HN HN |
|--------7-8-10-8-7--------------7-8-7--- |
|--12-------------------------10-------10 |
|--12------------------12---------------- |
|--12------------------12---------------- |
|---------------------------------------- | ---> 2x
|---------------------------------------- |
|

C D |
|
|-------------|- |
|--------3-3---|- 2x |
|--0-0---2-2---|- |
|--2-2---0-0---|- |
|--3-3--------|- |
|-------------|- |
----------------------------------------------------

Volta os versos com a mesma sequência de acordes da 1ª estrofe:

I see your curves and I feel your vibrations
You dress in black and white, your lost in the mall
I watch you disappear past "Club Med Vacations"
Another sleepless night a sun that won't fall

Refrão
Depois do refrão

Now the night is gone, a new day is dawning.
And our homeless dreams go back to the street.
Another time or place, another civilization
would really make this life feel so complete

Refrão
Depois do refrão

Aí vem:
G Em C C G Em C C
Dreamin Man (he's got a problem) Dreamin Man
G Em C C G Em C C
Dreamin Man (he's got a problem) Dreamin Man

ACORDES PARA GUITARRA

PIANO UKELELE
G
Em7
C9
C
D
Em


COMENTARIOS

Aún no hay comentarios,

¡escribe el primero!

Escribe una pregunta, duda o comentario sobre esta canción, te responderemos a la brevedad.

Las más tocadas de Neil Young

Toca una Canción al Azar de Neil Young
G
Em7
C9
C
D
Em