Compartir


Imprimir FAQ
+A
-A

Texto

Desplazamiento

Transportador

Color de Fondo

Archivos

-A
+A
Afinação: D A D G B D

* = harmonics
D|----------------|
B|---7*---12*-----|
G|---7*---12*-----|
D|---7*---12*-----|
A|----------------|
D|-------------0--|

    Am7            D        Am7            D
D|-5--5--5--5--5--7--7--7--5--5--5--5--5--7-|-------------------|
B|-5--5--5--5--5--7--7--7--5--5--5--5--5--7-|-------------------|
G|-5--5--5--5--5--7--7--7--5--5--5--5--5--7-|------5p4---42----|
D|-5--5--5--5--5--7--7--7--5--5--5--5--5--7-|--5h7-----5-----4--|
A|------------------------------------------|-------------------|
D|------------------------------------------|-------------------|

    Am7            D        Am7            D
D|-5--5--5--5--5--7--7--7--5--5--5--5--5--7-|-------------------|
B|-5--5--5--5--5--7--7--7--5--5--5--5--5--7-|-------------------|
G|-5--5--5--5--5--7--7--7--5--5--5--5--5--7-|----5p4---42------|
D|-5--5--5--5--5--7--7--7--5--5--5--5--5--7-|--7-----5-----4/5--|
A|------------------------------------------|-------------------|
D|------------------------------------------|-------------------|

    Am7            D        Am7            D
D|-5--5--5--5--5--7--7--7--5--5--5--5--5--7-|-------------------|
B|-5--5--5--5--5--7--7--7--5--5--5--5--5--7-|-------------------|
G|-5--5--5--5--5--7--7--7--5--5--5--5--5--7-|------5p4---42----|
D|-5--5--5--5--5--7--7--7--5--5--5--5--5--7-|--5h7-----5-----4--|
A|------------------------------------------|-------------------|
D|------------------------------------------|-------------------|

    Am7            D        Am7            D
D|-5--5--5--5--5--7--7--7--5--5--5--5--5--7-|-------------------|
B|-5--5--5--5--5--7--7--7--5--5--5--5--5--7-|----------------0--|
G|-5--5--5--5--5--7--7--7--5--5--5--5--5--7-|-------5--4--2--0--|
D|-5--5--5--5--5--7--7--7--5--5--5--5--5--7-|--5h7--------------|
A|------------------------------------------|-------------------|
D|------------------------------------------|-------------------|

G
In a foreign land
G
There were creatures at 

    C           D/F#               C          D/F#
D|------------------------------|-------------------------------|
B|-1----------0h3-----3-------3-|-1----------0h3---------3--3---|
G|-0-------0--0h2-----2-------2-|-0-------0--0h2---------2--2---|
D|-0h2--0h2---0h4--0h4---5p4--0-|-0h2--0h2---0h4--5p4--0----0h4-|
A|-3----------------------------|-3-----------------------------|
D|------------------------------|-------------------------------|
   play

G
Running hand in hand
G
Leading nowhere to 

    C           D/F#               C          D/F#
D|------------------------------|-------------------------------|
B|-1----------0h3-----3-------3-|-1----------0h3---------3--3---|
G|-0-------0--0h2-----2-------2-|-0-------0--0h2---------2--2---|
D|-0h2--0h2---0h4--0h4---5p4--0-|-0h2--0h2---0h4--5p4--0----0h4-|
A|-3----------------------------|-3-----------------------------|
D|------------------------------|-------------------------------|
   stay

Am7  D
Driven to the mountains high
Am7  D
They were sunken in the cities deep

Am7  D  Am7  D
Livin' in my sleep

D|-------------------|
B|-------------------|
G|------5p4---42----|
D|--5h7-----5-----4--|
A|-------------------|
D|-------------------|

    Am7            D        Am7            D
D|-5--5--5--5--5--7--7--7--5--5--5--5--5--7-|-------------------|
B|-5--5--5--5--5--7--7--7--5--5--5--5--5--7-|-------------------|
G|-5--5--5--5--5--7--7--7--5--5--5--5--5--7-|-------5--4--2-----|
D|-5--5--5--5--5--7--7--7--5--5--5--5--5--7-|--5h7-----------4--|
A|------------------------------------------|-------------------|
D|------------------------------------------|-------------------|

    Am7            D        Am7            D
D|-5--5--5--5--5--7--7--7--5--5--5--5--5--7-|-------------------|
B|-5--5--5--5--5--7--7--7--5--5--5--5--5--7-|-------------------|
G|-5--5--5--5--5--7--7--7--5--5--5--5--5--7-|------5p4---42----|
D|-5--5--5--5--5--7--7--7--5--5--5--5--5--7-|--5h7-----5-----4--|
A|------------------------------------------|-------------------|
D|------------------------------------------|-------------------|

    Am7            D        Am7            D
D|-5--5--5--5--5--7--7--7--5--5--5--5--5--7-|-------------------|
B|-5--5--5--5--5--7--7--7--5--5--5--5--5--7-|----------------0--|
G|-5--5--5--5--5--7--7--7--5--5--5--5--5--7-|-------5--4--2--0--|
D|-5--5--5--5--5--7--7--7--5--5--5--5--5--7-|--5h7--------------|
A|------------------------------------------|-------------------|
D|------------------------------------------|-------------------|

I feel like goin' back
Back where there's nowhere to stay When fire fills the sky
I'll still remember that day
These rocks I'm climbin' down
Have already left the ground
Careening through space

D|-------------------|
B|-------------------|
G|------5p4---42----|
D|--5h7-----5-----4--|
A|-------------------|
D|-------------------|

    Am7            D        Am7            D
D|-5--5--5--5--5--7--7--7--5--5--5--5--5--7-|-------------------|
B|-5--5--5--5--5--7--7--7--5--5--5--5--5--7-|-------------------|
G|-5--5--5--5--5--7--7--7--5--5--5--5--5--7-|------5p4---42----|
D|-5--5--5--5--5--7--7--7--5--5--5--5--5--7-|--5h7-----5-----4--|
A|------------------------------------------|-------------------|
D|------------------------------------------|-------------------|

    Am7            D        Am7            D
D|-5--5--5--5--5--7--7--7--5--5--5--5--5--7-|-------------------|
B|-5--5--5--5--5--7--7--7--5--5--5--5--5--7-|-------------------|
G|-5--5--5--5--5--7--7--7--5--5--5--5--5--7-|-------------------|
D|-5--5--5--5--5--7--7--7--5--5--5--5--5--7-|--7-------7--------|
A|------------------------------------------|--0-------0--------|
D|------------------------------------------|--0-------0--------|

    Am7            D        Am7            D
D|-5--5--5--5--5--7--7--7--5--5--5--5--5--7-|-------------------|
B|-5--5--5--5--5--7--7--7--5--5--5--5--5--7-|-------------------|
G|-5--5--5--5--5--7--7--7--5--5--5--5--5--7-|-------------------|
D|-5--5--5--5--5--7--7--7--5--5--5--5--5--7-|--7-------7--------|
A|------------------------------------------|--0-------0--------|
D|------------------------------------------|--0-------0--------|

    Am7            D        Am7            D
D|-5--5--5--5--5--7--7--7--5--5--5--5--5--7-|-------------------|
B|-5--5--5--5--5--7--7--7--5--5--5--5--5--7-|-------------------|
G|-5--5--5--5--5--7--7--7--5--5--5--5--5--7-|-------------------|
D|-5--5--5--5--5--7--7--7--5--5--5--5--5--7-|--7-------7--------|
A|------------------------------------------|--0-------0--------|
D|------------------------------------------|--0-------0--------|

I used to build these buildings
I used to walk next to you
Their shadows tore us apart
And now we do what we do
Driven to the mountains high
Sunken in the cities deep
Livin' in our sleep

D|-------------------|
B|----------------0--|
G|-------5--4--2--0--|
D|--5h7--------------|
A|-------------------|
D|-------------------|

G
I feel like goin' back 
G                             C   D/F#   C   D/F#
Back where there's nowhere to sta

Video Clip de Goin' Back


ACORDES PARA GUITARRA

PIANO UKELELE
Am7
D
G
C
D/F#


TOP 20: Las más tocadas de Neil Young


Toca una Canción al Azar de Neil Young

Acordes

Cerrar
Am7
D
G
C
D/F#

07.28

x

205