My My Hey Hey (Out of the Blue)
Neil Young
Acordes

Subida por Nano777
Álbum: Rust Never Sleeps ( 1979)


Más Versiones
Ver. 2 Ver. 3
+A
-A
Intro

(Gm F Eb7m) (Gm F Eb7m)
e|--------------------|--------------------------|
B|--------------------|--------------------------|
G|--------------------|--------------------------|
D|--------------------|------------------3-------|
A|----0-1-3---0-------|----0-1-3---3-3/5-----3---|
E|3-3-----------3-1-3-|3-3-----------------6---3-|

(Gm F Eb7m) (Gm F Eb7m)
e|--------------------|--------------------------|
B|--------------------|--------------------------|
G|--------------------|--------------------------|
D|--------------------|--------------------------|
A|----0-1-3---0-------|----0-1-3---3-5-3---3-----|
E|3-3-----------3-1-3-|3-3---------------6---3---|

(Gm F Eb7m)
My my, hey hey
Rock and roll is here to stay
Bb F Gm Eb
It's better to burn out than to fade away
Gm F Eb7m
My my, hey hey

(Gm F Eb7m)
e|--------------------|
B|--------------------|
G|--------------------|
D|--------------------|
A|----0-1-3---0-------|
E|3-3-----------3-1-3-|

Out of the blue and into the black
They give you this, but you pay for that
And once you're gone, you can never come back
When you're out of the blue and into the black

(Gm F Eb7m) (Gm F Eb7m)
e|--------------------|--------------------------|
B|--------------------|--------------------------|
G|--------------------|--------------------------|
D|--------------------|--------------------------|
A|----0-1-3---0-------|----0-1-3---3-5-3---3-----|
E|3-3-----------3-1-3-|3-3---------------6---3---|

(gaita solo)
(Bb F Gm Eb)

(Gm F Eb7m)
e|--------------------|
B|--------------------|
G|--------------------|
D|--------------------|
A|----0-1-3---0-------|
E|3-3-----------3-1-3-|

The king is gone but he's not forgotten
This is the story of Johnny Rotten
It's better to burn out than it is to rust
The king is gone but he's not forgotten

(Gm F Eb7m)
e|--------------------|
B|--------------------|
G|--------------------|
D|--------------------|
A|----0-1-3---0-------|
E|3-3-----------3-1-3-|

Hey hey, my my
Rock and roll can never die
There's more to the picture
Than meets the eye
Hey hey, my my

ACORDES PARA GUITARRA

PIANO UKELELE
Gm
F
Ebm7
Bb
Eb


COMENTARIOS

Aún no hay comentarios,

¡escribe el primero!

Escribe una pregunta, duda o comentario sobre esta canción, te responderemos a la brevedad.

Las más tocadas de Neil Young

Toca una Canción al Azar de Neil Young
Gm
F
Ebm7
Bb
Eb