Old Man
Neil Young
Acordes

Subida por lexbc
Álbum: Harvest ( 1972)


Más Versiones
Ver. 2 Ver. 3 Ver. 4 Ver. 5 Ver. 6
+A
-A
[Intro]

Dm7
E|----------0--------|---------0---------|
B|------6-----6---6--|------6-----6---6--|
G|-0h5----5-----5----|-0h5----5-----5----|
D|-0-----------------|-0-----------------|
A|-------------------|-------------------|
E|-------------------|-------------------|

Dm7
E|----------0--------|---------0---------|
B|------6-----6---6--|------6-----6---6--|
G|-0h5----5-----5----|-0h5----5-----5----|
D|-0-----------------|-0-----------------|
A|-------------------|-------------------|
E|-------------------|-------------------|

D D4
E|----------0h2------|--3p2-----0-----2--|
B|-----3--------3----|----------3-----3--|
G|-------2--------2--|-------2-----2-----|
D|--0----------------|-------------------|
A|-------------------|-------------------|
E|-------------------|-------------------|

Dm7
Old man look at my life, I'm a lot like
D/9 D D4 D D/9 D
you were
Dm7
Old man look at my life, I'm a lot like
you were

D F C G
E|--2---------|------------|----------------|--3--|
B|--3---------|--1---------|--1-------------|--0--|
G|--2--0-0h2--|--2--0-0h2--|--0------0h2-0--|--0--|
D|--0---------|--3---------|--2--0h2--------|--0--|
A|------------|--3---------|--3-------------|--2--|
E|------------|------------|----------------|--3--|

D F C F
E|--2---------|------------|----------------|--0--|
B|--3---------|--1---------|--1-------------|--1--|
G|--2--0-0h2--|--2--0-0h2--|--0------0h2-0--|--2--|
D|--0---------|--3---------|--2--0h2--------|--3--|
A|------------|--3---------|--3-------------|--3--|
E|------------|------------|----------------|-----|

D F
Old man look at my life
C G
Twenty four and there's so much more
D F
Live alone in a paradise
C F
That makes me think of two
D F
Love lost, such a cost
C G
Give me things that don't get lost
D F
Like a coin that won't get tossed
C F
Rolling home to you

E|-----------|
B|-----------|
G|-----------|
D|-----------|
A|----0-2-3--|
E|--3--------|

( D Am7 Em G )

D D/9 D D4 D D/9 D/9 D
Old man take a look at my life
Am7 Em G
I'm a lot like you
D D/9 D D4 D D/9 D/9 D
I need someone to love me
Am7 Em G
the whole day through
D D/9 D D4 D D/9 D/9 D
Ah, one look in my eyes
Am7 Em G
And you can tell that's true

D F C G
E|--2---------|------------|----------------|--3--|
B|--3---------|--1---------|--1-------------|--0--|
G|--2--0-0h2--|--2--0-0h2--|--0------0h2-0--|--0--|
D|--0---------|--3---------|--2--0h2--------|--0--|
A|------------|--3---------|--3-------------|--2--|
E|------------|------------|----------------|--3--|

D F C F (
E|--2---------|------------|----------------|--0--|
B|--3---------|--1---------|--1-------------|--1--|
G|--2--0-0h2--|--2--0-0h2--|--0------0h2-0--|--2--|
D|--0---------|--3---------|--2--0h2--------|--3--|
A|------------|--3---------|--3-------------|--3--|
E|------------|------------|----------------|-----|

D F
Lullabies, look in your eyes
C G
Run around the same old town
D F
Doesn't mean that much to me
C F
To mean that much to you
D F
I've been first and last
C G
Look at how the time goes past
D F
But I'm all alone at last

C F
Rolling home to you

E|-----------|
B|-----------|
G|-----------|
D|-----------|
A|----0-2-3--|
E|--3--------|

( D Am7 Em G )

D D/9 D D4 D D/9 D/9 D
Old man take a look at my life
Am7 Em G
I'm a lot like you
D D/9 D D4 D D/9 D/9 D
I need someone to love me
Am7 Em G
The whole day through
D D/9 D D4 D D/9 D/9 D
Ah, one look in my eyes
Am7 Em G
And you can tell that's true

Dm7
E|----------0--------|---------0---------|
B|------6-----6---6--|------6-----6---6--|
G|-0h5----5-----5----|-0h5----5-----5----|
D|-0-----------------|-0-----------------|
A|-------------------|-------------------|
E|-------------------|-------------------|

Dm7
E|----------0--------|---------0---------|
B|------6-----6---6--|------6-----6---6--|
G|-0h5----5-----5----|-0h5----5-----5----|
D|-0-----------------|-0-----------------|
A|-------------------|-------------------|
E|-------------------|-------------------|

D D4
E|----------0h2------|--3p2-----0-----2--|
B|-----3--------3----|----------3-----3--|
G|-------2--------2--|-------2-----2-----|
D|--0----------------|-------------------|
A|-------------------|-------------------|
E|-------------------|-------------------|

Dm7
Old man look at my life, I'm a lot like
D/9 D D4 D D/9 D
You were
Dm7
Old man look at my life, I'm a lot like
D
You were

[Final] D F C G
D

ACORDES PARA GUITARRA

PIANO UKELELE
Dm7
D
D4
D9
F
C
G
Am7
Em


COMENTARIOS

Aún no hay comentarios,

¡escribe el primero!

Escribe una pregunta, duda o comentario sobre esta canción, te responderemos a la brevedad.

Las más tocadas de Neil Young

Toca una Canción al Azar de Neil Young
Dm7
D
D4
D9
F
C
G
Am7
Em