On The Beach (Acordes)

Neil Young

Full Álbum: On the Beach (1974)
Subida por Aymee

Compartir


Imprimir FAQ
+A
-A

Texto

Desplazamiento

Transportador

Color de Fondo

Archivos

-A
+A
ON THE BEACH
TABBED BY GIANTE

VERSE

G|---------------------|x6
D|---------------------|
A|-5----7---------7----|
E|---5------5-8-5------|


CHORUS

G|---------------------------------|
D|---------------------------------|
A|--3-5--5----3-5--5----5-3---7----|
E|-5---------5--------------5------|

G|------------|X2
D|------------|
A|-3----------|
E|--------1---|

Just take it slow and play this over and over and you'll get the feel for it, and during 
guitar solo, you can add a little variation, but I'll let you figure that out.  Thats it!

-PLEASE TAB MORE NEIL!!!

Video Clip de On The Beach


ACORDES PARA GUITARRA

PIANO UKELELE


TOP 20: Las más tocadas de Neil Young


Toca una Canción al Azar de Neil Young

Acordes

Cerrar

06.30

x

89