Rockin' In The Free World
Neil Young
Acordes

Subida por Gustavo
Álbum: Freedom ( 1989)


Más Versiones
Ver. 2 Ver. 3 Ver. 4 Ver. 5
+A
-A
Intro 4x: Em  D  C
Em D C
E|------------------------2--X--0--0--0----
B|------------------------3--X--1--1--1----
G|------------------------2--X--0--0--0----
D|-2--2--2--2--2--2--2--2-0--X--2--2--2----
A|-2--2--2--2--2--2--2--2-------3--3--3----
E|-0--0--0--0--0--0--0--0------------------
↓ ↓ ↓ ↓ ↓ ↓ ↓ ↓ ↓ ↓ ↑ ↓ ↑

Usando Power Chords:
E5 D5 C5
E|-----------------------------------------
B|-----------------------------------------
G|-----------------------------------------
D|-2--2--2--2--2--2--2--7--7--5----5-5-----
A|-2--2--2--2--2--2--2--5--5--3----3-3-----
E|-0--0--0--0--0--0--0---------------------
↓ ↓ ↓ ↓ ↓ ↓ ↓ ↓ ↓ ↑ ↓ ↑

Primeira parte:
Em7 D C
Colours on the street
Em7 D C
Red white and blue
Em7 D C
People shufflin' their feet
Em7 D C
People sleepin' in their shoes

Em D C
But there's a warnin' sign on the road ahead
Em D C
There's a lot of people sayin' we'd be better off dead
Em D C
Don't feel like Satan but I'm to them
Em D C
so I try to forget it anyway I can
Em7 D C
E|-------0---0--2--2---0--0--0-------------
B|----3--3-3-3--3--3---1--1--1-------------
G|----0----0----2--2---0--0--0-------------
D|-2------------0--0---2--2--3-------------
A|-2-------------------3--3--3-------------
E|-0---------------------------------------
↓ ↑ ↓ ↓ ↑
Em D C
E|-------------------------2--2-----0--0-----
B|-------------------------3--3-----1--1-----
G|-------------------------2--2-----0--0-----
D|-2--2--2--2--2--2--2--2--0--0-----2--2-----
A|-2--2--2--2--2--2--2--2-----------3--3-----
E|-0--0--0--0--0--0--0--0--------------------
↓ ↓ ↓ ↓ ↓ ↓ ↓ ↓ ↓ ↓ ↓ ↓

Refrão:
G D C Em
Keep on rockin'in the free world (3x)
G D C Em A5
Keep on rockin'in the free world
G D C
E|-3--3---3-3-3--2--2--2-2-2--0--0--0-0-0--
B|-3--3---3-3-3--3--3--3-3-3--1--1--1-1-1--
G|-0--0---0-0-0--2--2--2-2-2--0--0--0-0-0--
D|-0--0---0-0-0--0--0--0-0-0--2--2--2-2-2--
A|-2--2-----------------------3--3--3-3-3--
E|-3--3------------------------------------
↓ ↓ ↑ ↓ ↑ ↓ ↓ ↑ ↓ ↑ ↓ ↓ ↑ ↓ ↑
Em
E|------------0-----------------------------
B|------------0-----------------------------
G|------------0-----------------------------
D|--------2---2-----------------------------
A|-3p2----2---2-----------------------------
E|-----3--0---0-----------------------------
↓ ↑

Refrão - variação:
G D C
E|-3--3-3---3-3-3--2--2--2-2-2--0--0--0-0-0
B|-3--3-3---3-3-3--3--3--3-3-3--1--1--1-1-1
G|-0--0-0---0-0-0--2--2--2-2-2--0--0--0-0--
D|-0--0-0---0-0-0--0--0--0-0-0--2--2--2-2-2
A|-2--2-2-----------------------3--3--3-3-3
E|-3--3-3----------------------------------
↓ ↑ ↓ ↑ ↓ ↑ ↓ ↓ ↑ ↓ ↑ ↓ ↓ ↑ ↓ ↑

Última repetição:
Em A5
E|-----------0-----------------------------
B|-----------0-----------------------------
G|-----------0---2-------2-----------------
D|--------2--2---2-------2-----------------
A|-3p2----2--2---0-------0-----------------
E|-----3--0--0-----------------------------
↓ ↑

(Repetição)

( Em D C ) (4x)

Em D C
E|------------------------2--X--0--0--0----
B|------------------------3--X--1--1--1----
G|------------------------2--X--0--0--0----
D|-2--2--2--2--2--2--2--2-0--X--2--2--2----
A|-2--2--2--2--2--2--2--2-------3--3--3----
E|-0--0--0--0--0--0--0--0------------------
↓ ↓ ↓ ↓ ↓ ↓ ↓ ↓ ↓ ↓ ↑ ↓ ↑

Primeira parte:
Em7 D C
I see a woman in the night
Em7 D C
With a baby in her hand
Em7 D C
Under an old street light
Em7 D C
Near a garbage can

Em
Now she puts the kid away
D C
And she's gone to get a hit
Em D C
She hates her life and what she's done to it
Em D C
That's one more kid that will never go to school
Em D C
Never get to fall in love never get to be cool

Refrão:
G D C Em
Keep on rockin'in the free world (3x)
G D C Em A5
Keep on rockin'in the free world

Solo: Em D C (4x)
Em7 D C (4x)
E|-12----12-12--12-----------------------------------
B|-15b17-17-17--17r-12-----12--12--12-----12--12-----
G|------------------14b16--16--16r-14b16--16--16r-14-
D|---------------------------------------------------
A|---------------------------------------------------
E|---------------------------------------------------

E|-----------------------------12h16p12--------------
B|-----------------------12h15----------h15p12-------
G|-12-11b12r11-----13h14-----------------------h14p13
D|-------------12~-----------------------------------
A|---------------------------------------------------
E|---------------------------------------------------

E|---------------------------------------------------
B|-----------12-12-----------------------------------
G|-------13--13-13-----------------------------------
D|-14p12-----------12~-------------------------------
A|---------------------------------------------------
E|---------------------------------------------------

E|-------19-------17-------14-------12-------14~-----
B|-15/17----1715----1512----1210----10/12---------
G|---------------------------------------------------
D|---------------------------------------------------
A|---------------------------------------------------
E|---------------------------------------------------

E|---------------------------------------------------
B|---------------------------------------------------
G|-------16-------14-------16-------14~--------------
D|-12/14----1412----12/14----1412------------------
A|---------------------------------------------------
E|---------------------------------------------------

E|-17p12---------------------------------------------
B|-------17p12---------------------------------------
G|-------------16p12-------12~-14b16p14-12----12~----
D|-------------------16p12-----------------16--------
A|---------------------------------------------------
E|---------------------------------------------------

E|---------------------------------------------------
B|-------15-------15-------15-------15-------15------
G|-12h14----12h14----12h14----12h14----12h14----14---
D|---------------------------------------------------
A|---------------------------------------------------
E|---------------------------------------------------

E|----------------------------------------15---------
B|-15b17r15p12---15b17~-15/17--17--17-17--17-17-1715
G|----------------------14/16--16--16-16--16-16-1614
D|---------------------------------------------------
A|---------------------------------------------------
E|---------------------------------------------------

E|---------------------------------------------------
B|-15----15--15-15-----15-----15--15-----------------
G|-14b16-16--16-16r14--14b16--16--16r14--------------
D|-------------------------------------14~-----------
A|---------------------------------------------------
E|---------------------------------------------------

We got a thousand points of light
For the homeless man
We got a kinder, gentler,
Machine gun hand

Em
We got department stores
D C
and toilet paper
Em
Got styrofoam boxes
D C
for the ozone layer
Em
Got a man of the people,
D C
says keep hope alive
Em
Got fuel to burn,
D C
got roads to drive.

Refrão:
G D C Em
Keep on rockin'in the free world (3x)
G D C Em A5
Keep on rockin'in the free world

(Solo)

ACORDES PARA GUITARRA

PIANO UKELELE
Em
D
C
E5
D5
C5
Em7
G
A5


COMENTARIOS

Aún no hay comentarios,

¡escribe el primero!

Escribe una pregunta, duda o comentario sobre esta canción, te responderemos a la brevedad.

Las más tocadas de Neil Young

Toca una Canción al Azar de Neil Young
Em
D
C
E5
D5
C5
Em7
G
A5