Saddle Up The Palomino
Neil Young
Acordes

Subida por Williamaeror


Más Versiones
Ver. 2
+A
-A
TAB legend
_5 hammer on/pull off
/7 slide up
5 slide down
5= vibrato (single notes) or sustain (whole chords)
5^ bend up
5` slight bend
(9) ghost bend
5. staccato note
Intro:
|-------------------------------------|
|-------------------------------------|
|----------0==-0---------------0------|
|0==-0-2-4-------4-2-0==-0-2-4---4-2-0|
|-------------------------------------|
|-------------------------------------|
D G D G <--rythym guitar
|-------------------------------------|
|-------------------------------------|
|----------0==-0---------------0------|
|0==-0-2-4-------4-2-0==-0-2-4---4-2-0|
|-------------------------------------|
|-------------------------------------|
D G D G
Oh Oh Carmelita the
D G D G
daughter of the wealthy ban ker Since
D G D G
she came to town all my friends are gone and
D G D G
I'm stuck out here with Melody

E7 A (A)|----0-2-4
Saddle up the Palomino the sun is going down, the
D F#7 G E7
way I feel this must be real
|2------------|0-----------|3-----------|0-----------|
|3------------|2-----------|3-----------|3-----------|
|2------------|3-----------|4-----------|1-----------|
|0------------|4-----------|5-----------|2-----------|
|-------------|------------|------------|2-----------|
|-------------|------------|------------|0-----------|
Bo7 C#7 D(V)
Ooh oooh oooh
|1------------|4-----------|5-----------|------------|
|3------------|6-----------|7-----------|------------|
|1------------|4-----------|7-----------|------------|
|-------------|6-----------|7-----------|------------|
|2------------|------------|5-----------|------------|
|-------------|------------|------------|------------|
D G D G
|-------------------------------------|
|-------------------------------------|
|----------0==-0---------------0------|
|0==-0-2-4-------4-2-0==-0-2-4---4-2-0|
|-------------------------------------|
|-------------------------------------|
D G D G
|-------------------------------------|
|-------------------------------------|
|----------0==-0---------------0------|
|0==-0-2-4-------4-2-0==-0-2-4---4-2-0|
|-------------------------------------|
|-------------------------------------|

D G D G
If you can't cut it
D G D G
Don't pick up the knife. There's
D G D G
no reward in your conscience stored when yer
D G D G
sleepin' with another man's wife.

E7 A (A)|----0-2-4
Saddle up the Palomino the sun is going down, the
D F#7 G E7
way I feel this must be real
|2------------|0-----------|3-----------|0-----------|
|3------------|2-----------|3-----------|3-----------|
|2------------|3-----------|4-----------|1-----------|
|0------------|4-----------|5-----------|2-----------|
|-------------|------------|------------|2-----------|
|-------------|------------|------------|0-----------|
Bo7 C#7 D(V)
Ooh oooh oooh
|1------------|4-----------|5-----------|------------|
|3------------|6-----------|7-----------|------------|
|1------------|4-----------|7-----------|------------|
|-------------|6-----------|7-----------|------------|
|2------------|------------|5-----------|------------|
|-------------|------------|------------|------------|
D G D G (4 x)
|-------------------------------------|
|-------------------------------------|
|----------0==-0---------------0------|
|0==-0-2-4-------4-2-0==-0-2-4---4-2-0|
|-------------------------------------|
|-------------------------------------|
E7 A (A)|----0-2-4
D F#7 G E7
|2------------|0-----------|3-----------|0-----------|
|3------------|2-----------|3-----------|3-----------|
|2------------|3-----------|4-----------|1-----------|
|0------------|4-----------|5-----------|2-----------|
|-------------|------------|------------|2-----------|
|-------------|------------|------------|0-----------|
Bo7 C#7 D(V)
Ooh oooh oooh
|1------------|4-----------|5-----------||
|3------------|6-----------|7-----------||
|1------------|4-----------|7-----------||
|-------------|6-----------|7-----------||
|2------------|------------|5-----------||
|-------------|------------|------------||

D G D G
I want to lick the platter the
D G D G
gravy doesn't matter It's a
D G D G
cold bowl of chili when love let you down but it's the
D G D G
neighbor's wife I'm after

E7 A (A)|----0-2-4
Saddle up the Palomino the sun is going down, the
D F#7 G E7
way I feel this must be real
|2------------|0-----------|3-----------|0-----------|
|3------------|2-----------|3-----------|3-----------|
|2------------|3-----------|4-----------|1-----------|
|0------------|4-----------|5-----------|2-----------|
|-------------|------------|------------|2-----------|
|-------------|------------|------------|0-----------|
Bo7 C#7 D(V)
Ooh oooh oooh
|1------------|4-----------|5-----------||
|3------------|6-----------|7--8--7==---||
|1------------|4-----------|7====---7==-||
|-------------|6-----------|7====-------||
|2------------|------------|5====-------||
|-------------|------------|------------||////////////////// ¿Te Animas? Sube una canción a este sitio. //////////////////

ACORDES PARA GUITARRA

PIANO UKELELE


COMENTARIOS

Aún no hay comentarios,

¡escribe el primero!

Escribe una pregunta, duda o comentario sobre esta canción, te responderemos a la brevedad.

Las más tocadas de Neil Young

Toca una Canción al Azar de Neil Young