Compartir


Imprimir FAQ
+A
-A

Texto

Desplazamiento

Transportador

Color de Fondo

Archivos

-A
+A
(intro)

E |------0----------0~------------------------|
B |------3----------3~------------------------|
G |------2----------2~---2-0------------------|
d|0h2~p0-0h2~0-0h2~--------2-2-0-------------|
A |-------------------------------0-----------|
E |-------------------0-2-----------0-0-2-2-3~|(drum starts here.)

(riff 1)
Hey ho, here we go, were on the road to never,
e|0~~~----------------------------------------2p0-|
b|0~~~-------------------------------------------2|
g|0~~~--------------------------------------------|
d|2~~~----------2~~0~~~~~~~~~~~~~~~~~~~~~~~~~~----|
a|2~~~--0~~~~~~~----------------------------------|
e|0~~~--------------------------------------------|

(riff 2)
Where life's a joy for girls and boys it only will get better.
e|-------------------------------------------------------|
b|-------------------------------------------------------|
g|---------------------------2~~~~~~~0~~~~~~~~~~~~~~~~~~-|
d|-------------------------------------------------------|
a|--------2~~~~~~~0~~~~~~~~~~----------------------------|
e|0~~~~~~~~----------------------------------------------|

(chorus)
E   D   E       D        E       D       E     D
Hey ho, here we go, were on the road to never

(riff 3)
  Romeo and Juliet the doctor and his case
E |-------------------------------------------------2--|
B |----------------------------------------3~~~~~~~~-3-|
G |----------------------------2~~~~~~~~~~~-----------2|
D |---------------2----0~~~~~~~------------------------|
A |---2~~~~~0~~~~~-------------------------------------|
e|0~~-------------------------------------------------|

(riff 2)

(chorus)

(solo)
E |--0~~0-0~~-------------------------0-2-0-------------------|
B |-3~~~~~~~~3---------------0-3~~--3~~~~~~3-----------0------|
g|2~~~~~~~~~~2~~0--2-2-2--2------2~~~~~~~~~2-0----2-2---2-0--|
D |---------------3-----------------------------3~~----------3|
A |-----------------------------------------------------------|
E |-----------------------------------------------------------|

(after the second solo do a couple of pullofs on the highest string and the 5th the 7th
9th fret)

(riff 3)
(riff 2)
(chorus)
(solo)
(riff 1)
(riff 2) (tip use bridge pickup here!)

(outra versão da intro)
E|-------------------------|
B|-------------------------|
G|-------------------------|
D|-----5-7-----------------|
A|5h7-----------5h7--5-7---|
E|0-------------0------5---|

Video Clip de Song X


ACORDES PARA GUITARRA

PIANO UKELELE
E
D


TOP 20: Las más tocadas de Neil Young


Toca una Canción al Azar de Neil Young

Acordes

Cerrar
E
D

22.02

x

147