Ten Men Workin (Acordes)

Neil Young

Subida por Mariuxi

Compartir


Imprimir FAQ
+A
-A

Texto

Desplazamiento

Transportador

Color de Fondo

Archivos

-A
+A

Tabbed By : cmraub
e-mail: *

Tuning:standard
Intro    play 3x *
G|---------------------|---------------------------------------------------|
D|-------------4----2--|---------------------------------------------------|
A|-6h7-4-5-4-5----0----|-6h7-4-5-4-5-5-0-----------------------------------|
E|---------------------|---------------------------------------------------|
main rhythm    play 8x
G|-------------------------------------------------------------------------|
D|--------------4---2------------------------------------------------------|
A|-6h7-4-5-4--5---0--------------------------------------------------------|
E|-------------------------------------------------------------------------|
Chorus              **
G|--------------------------2--------------------2-------------------------|
D|-5-4-3-2----------0--3--4------------2--0--3-4---------------------------|
A|----------0--3--4-------------0-3--4-------------------------------------|
E|-------------------------------------------------------------------------|
                               play 3x                ***
G|-----------------------|-------------------------|-----------------------|
D|--------------4-----2--|---------------4----2----|-----------------------|
A|--27--4-5-4-5---0-----|--6h7-4-5-4--5---0-------|-27----7--------------|
E|-----------------------|-------------------------|-----------------------|
   play main rhythm3x then
G|-------------------------------------------------------------------------|
D|-------------------------------------------------------------------------|
A|-6h7-4-5-4--57----------------------------------------------------------|
E|-------------------------------------------------------------------------|
   Play main rhythm 8x
   play chorus
   during solo, mix it up
G|----------------------|--------------------------------------------------|
D|---------------4---2--|--------------4---2-------------------------------|
A|--6h7-4-5-4--5---0----|-27-4-5-4--5---0---------------------------------|
E|----------------------|--------------------------------------------------|
play main rhythm 8x
play chorus
second solo
play main rhythm 8x, then play
G|--------------------------2--------------------2-------------------------|
D|-5-4-3-2----------0--3--4------------2--0--3-4---------------------------|
A|----------0--3--4-------------0-3--4-------------------------------------|
E|-------------------------------------------------------------------------|

G|-----------------------|-------------------------|-----------------------|
D|--------------4-----2--|---------------4----2----|-----------------------|
A|--27--4-5-4-5---0-----|--6h7-4-5-4--5---0-------|-----------------------|
E|-------------------------------------------------------------------------|
Ending
G|-------------------------------------------------------------------------|
D|-------------------------------------------------------------------------|
A|-2-3-4-5-6-7-8-9-10-11-12-13-14-15-16-17-18-19---------------------------|
E|-------------------------------------------------------------------------|
* 5-4 and 0-2 in the main rhythm synchs with the horn break
** In the chorus, each open note synchs with an "ooh" or "aah"
*** the 27 slide synchs with the trumpet squeak

That's pretty much it.  It isn't 100% accurate, but I like playing this version.  I'm 
to corrections.  Have fun.

|   slide down
| h  hammer-on
===============================================================================

Video Clip de Ten Men Workin


ACORDES PARA GUITARRA

PIANO UKELELE


TOP 20: Las más tocadas de Neil Young


Toca una Canción al Azar de Neil Young

Acordes

Cerrar

14.36

x

86