The Needle and The Damage Done
Neil Young
Acordes

Subida por Michael
Álbum: Harvest ( 1972)


Más Versiones
Ver. 2 Ver. 3 Ver. 4 Ver. 5
+A
-A
Intro: D9 - D9/C - D9/B - D9/Bb - C - F - E4 - E

D9 D9/C D9/B

E|---2---0---------|-------0---------|-------0---------|
B|-----------3---3-|---3-------3---3-|---3-------3---3-|
G|-----------------|-----------------|-----------------|
D|-0---0---0---0---|-----------------|-----------------|
A|-----------------|-3---3---3---3---|-2---2---2---2---|
E|-----------------|-----------------|-----------------|


D9/Bb

E|-------0---------|
B|---3-------3---3-|
G|-----------------|
D|-----------------|
A|-1---1---1---1---|
E|-----------------|

D9
I caught you knockin'
D9/C
at my cellar door
D9/B
I love you, baby,
D9/Bb
can I have some more
C F B7 E7
Ooh, ooh, the damage done

D9
I hit the city and
D9/C
I lost my band
D9/B
I watched the needle
D9/Bb
take another man
C F B7 E7
Gone, gone, the damage done

D9
I sing the song
D9/C
because I love the man
D9/B
I know that some
D9/Bb
of you don't understand
C F
Milk-blood
B7 E7
to keep from running out

D9
I've seen the needle
D9/C
and the damage done
D9/B D9/Bb
A little part of it in everyone
C
But every junkie's
F B7 E7
like a settin' sun

D9 - D9/C - D9/B - D9/Bb

ACORDES PARA GUITARRA

PIANO UKELELE
D9
D9/C
D9/B
D9/Bb
C
F
E4
E
B7
E7


COMENTARIOS

Aún no hay comentarios,

¡escribe el primero!

Escribe una pregunta, duda o comentario sobre esta canción, te responderemos a la brevedad.

Las más tocadas de Neil Young

Toca una Canción al Azar de Neil Young
D9
D9/C
D9/B
D9/Bb
C
F
E4
E
B7
E7