Two Old Friends
Neil Young
Acordes

Subida por jazlopez84
Álbum: Are You Passionate? ( 2002)



+A
-A
(intro)         A               A7+     D       A       F#m     D       E

E |-------------------------------------------------------------------|
B |-----10~----10h12p10-----------------------------------------------|
G |-9/11----11---------11~--11/9-7-9p7-11~--7-9-11~-9~-7~---7-9b11-9~-|
D |------------------------------------------------------97----------|
A |-------------------------------------------------------------------|
E |-------------------------------------------------------------------|

E |-------------------------------------------------------------------|
B |-----10-10~--12p10-10----------------------------------------------|
G |-9/11------11--------11~-/9-7--7---11~--7-9-11~-9~-7~---------7-7~-|
D |------------------------------9--9---------------------97--7------|
A |-------------------------------------------------------------------|
E |-------------------------------------------------------------------|

A A7+
Preacher went up to the Golden Gate,
D A
And met God there,
F#m D E
With the glow of love in his flowing hair.
A A7+
I'm dreamin' of a time when love and music,
D A
Is everywhere.
F#m D E
Can you see that time comin'?
A A7+
No my son that time has gone,
D A
There's things to do.
F#m D E
The world has changed since I first met you.

A A7+
Back when The Band played Rock of Ages,
D A
In their prime,
F#m D E
And the old juke joint was rockin'...

Esus4 E D A
Oh Lord there's so much hate,
F#m D A
In a world where we're from another place.
Esus4 E D A
Show me how to be like you.

C Fmaj7
See no evil, hear no evil,
C D
Feel no evil in my heart.
D A
In my heart, in my aching heart.
D
In my heart, in my heart,
A
In my old black heart.
D
In my heart, in my heart,
A
In my beating heart.

A A7+
Sky had turned a lotta shades of gray,
D A
As they walked on,
F#m D E
And a gentle rain fell down on them.

A A7+
They found faith in the way things are and,
D A
The way things change,
F#m D E
And they said goodbye like two old friends.

Esus4 E D A
Take me up to the mountains high,
F#m D A
Or a building top where the spirits fly.

Esus4 E D A
Show me how to be like you.

C Fmaj7
See no evil, hear no evil,
C D
Feel no evil in my heart.
D A
In my heart, in my aching heart.
D
In my heart, in my heart,
A
In my old black heart.
D
In my heart, in my heart,
A
In my beating heart.

Esus4 E D A
Oh Lord there's so much hate,
F#m D A
In a world where we're from another place.
Esus4 E D A
Show me how to be like you.

C Fmaj7
See no evil, hear no evil,
C D
Feel no evil in my heart.
D A
In my heart, in my aching heart.
D
In my heart, in my heart,
A
In my old black heart.
D
In my heart, in my heart,
A
In my beating heart.

ACORDES PARA GUITARRA

PIANO UKELELE
A
Amaj7
D
F#m
E
Esus4
C
Fmaj7


COMENTARIOS

Aún no hay comentarios,

¡escribe el primero!

Escribe una pregunta, duda o comentario sobre esta canción, te responderemos a la brevedad.

Las más tocadas de Neil Young

Toca una Canción al Azar de Neil Young
A
Amaj7
D
F#m
E
Esus4
C
Fmaj7