Bautizados en rencor (Acordes)

Neurosis Inc.

Subida por Kndpazos

Compartir


Cambiar Cifrado
Americano Latino

Cambiar Tonalidad
-1 +1
Imprimir FAQ
+A
-A

Texto

Desplazamiento

Transportador

Color de Fondo

Archivos

TONALIDAD, TAMAÑO, CIFRADO, SCROL.

Nos renovamos: Ahora puedes cambiar TODO haciendo clic en ICONO de la Guitarra () que aparece en la parte inferior de esta página.


LETRA CON ACORDES

PM = palm mute
s=slide
(  ) = dejar sonando - let ring
h=hammer on / b=bend


Riff 1
Guitarra 1 - Guitar 1
 PM-----|  PM--| PM--| PM--|
E|---------------------------------------|
B|---------------------------------------|
G|---------------------------------------| x 4 veces
D|---------------------------------------|
A|---------4-----5-----4-----5---5-3-3-3-|
E|-0-0-0-0-2-0-0-3-0-0-2-0-0-3-0-3-1-1-1-|

Guitarra 2 - Guitar 2
E|---------------------------------------|
B|---------------------------------------|
G|---------------------------------------| x 2 veces
D|---------------------------------------| luego 2 veces igual que guitarra
A|---------------------------------3-3-3-|
E|---------------------------------1-1-1-|

Riff 2 x 4 veces
 PM-------------------|       PM------------------|
E|-----------------------------------------------------------|
B|-----------------------------------------------------------|
G|-----------------------------------------------------------|
D|-----------------------------------------------------------|
A|----------------------2---2-1----------------------2---2-3-|
E|-0-0-0-0-0-0-0--2-2-3---3-----0-0-0-0-0-0-0--2-2-3---3-----|


Riff 3 (“El pueblo árabe…”) x 4 veces
 PM----------|  PM-----|   PM----|   PM----|   PM---------|    PM------|
E|----------------------------------------------------------------------------|
B|----------------------------------------------------------------------------|
G|----------------------------------------------------------------------------|
D|----------------------------------------------------------------------------|
A|--------------3---------3---------3---------3-------------(2)----------(2)--|
E|-1-1--1-1-1-1---1-1-1-1---1-1-1-1---1-1-1-1---1-1-1-1-1-1-(0)--0-0-0-0-(0)--|


Riff 4 x 2 veces
E|----------------------------------------------------------------------------|
B|----------------------------------------------------------------------------|
G|----------------------------------------------------------------------------|
D|----------------------------------------------------------------------------|
A|----------------------------------------------------------------------------|
E|-000-3-1-0000-3-1-000-3-1-0000-3-1-0000-1-4-0000-1-4-0000-0000-1-4-0000-1-4-|


-2-
Riff 5  (“en nombre de la Biblia…”) x 2 veces
 Guitarra 1 - Guitar 1
 PM-------------------------------------------------------------------------|
E|---------------------------------------------------------------------------|
B|---------------------------------------------------------------------------|
G|---------------------------------------------------------------------------|
D|---------------------------------------------------------------------------|
A|---------------------------------------------------------------------------|
E|-0000-5-7-0000-5-7-0000-5-7-0000-5-7-0000-5-8-0000-5-8-0000--5-8--0000-5-8-|


Guitarra 2
 PM----------------------------------------------------------------------
E|----------------------------------------------------------------------------|
B|----------------------------------------------------------------------------|
G|----------------------------------------------------------------------------|
D|------7-9------7-9------7-9------7-9------7-10------7-10------7-10-----7-10-|
A|-7777-----7777-----7777-----7777-----7777------7777------7777------7777-----|
E|----------------------------------------------------------------------------|

Riff 6 (“Pero también sangre y muerte…”) x 2 veces / 2 times
 PM---------------------------------------------------------------------------|
E|----------------------------------------------------------------------------|
B|----------------------------------------------------------------------------|
G|----------------------------------------------------------------------------|
D|----------------------------------------------------------------------------|
A|----------------------------------------------------------------------------|
E|-000-3-1--000-3-1--000-3-1--000-3-1--000-1-4--000-1-4--000--000-1-4-000-1-4-|






-3-
Riff 7 (“Esto no es ateísmo…”) x 1 vez
  PM---------------------|                   PM-----
E|---------------------------------------------------
B|---------------------------------------------------
G|---------------------------------------------------
D|---------------------------------------------------
A|-----------------------------------3333333333------
E|-000-2222-1111-3333-0000-2222-1111------------0000-

--------|
----------------------|
----------------------|
----------------------|
----------------------|
-----------222222222--|
-2222-1111------------|



Riff 8 (“Que algunos….”) x 2 veces
     PM---|  PM---|  PM---|  PM---|     PM----| PM----| PM----|  PM----|
E|---------------------------------------------------------------------|
B|---------------------------------------------------------------------|
G|---------------------------------------------------------------------|
D|---------------------------------------------------------------------|
A|-5-------5-------5-------5-------8-7-4-------4-------4-------4-------|
E|-3-3-3-3-3-3-3-3-3-3-3-3-3-3-3-3-6-5-2-2-2-2-2-2-2-2-2-2-2-2-2-2-2-2-|


Riff 9 x 2 veces
  PM-------|   PM--|  PM----|          PM----|  PM------|
E|--------------------------------------------------------
B|--------------------------------------------------------
G|--------------------------------------------------------
D|-9--------9--------9--------10--9-7-9--------9--------9-
A|-7--------7--------7--------8---7-5-7--------7--------7-
E|---000000---000000---000000-----------000000---000000---

---------------------------|
---------------------------|
---------------------------|
--10-9-7-(5)----(7)----(4)-|
--8--7-5-(3)----(5)----(2)-|
---------------------------|


-4-

Riff 10
Guitarra 1
E|---------------------------------------------
B|---------------------------------------------
G|---------------------------------------------
D|-9-99999999999999999999-88888888888888888886-
A|-7-77777777777777777777-66666666666666666666-
E|---------------------------------------------

----------------------------------------------|
----------------------------------------------|
----------------------------------------------|
-6-8-99999999999999999-12-10-8888888888888888-|
-6-6-77777777777777777-10-8--6666666666666666-|
----------------------------------------------|

Guitarra 2
E|------------------------------------------------------------------------
B|------------------------------------------------------------------------
G|------------------------------------------------------------------------
D|----------------------------------------(8)-----------------------------
A|-(2)------------------------------------(6)-----------------------------
E|-(0)--------------------------------------------------------------------

--------------------------------------------------------------------------|
--------------------------------------------------------------------------|
--------------------------------------------------------------------------|
---------------------------------------12-10(8)---------------------------|
----(2)--------------------------------10-8-(6)---------------------------|
----(0)-------------------------------------------------------------------|


Arreglo del comienzo en la versión 2005 del álbum “Subversivos Espirituales” :

Guitarra 1 x 4 veces

PM-------------------|       PM----------------|
E|--------------------------------------------------------|
B|--------------------------------------------------------|
G|--------------------------------------------------------|
D|---------------------7--7-6---------------------7---7-8-|
A|---------------7-7-8---8------------------7-7-8---8-----|
E|-0-0-0-0-0-0-0--------------0-0-0-0-0-0-0---------------|


Guitarra 2 (últimas 2 veces solamente)

PM-------------------|           PM----------------|
E|--------------------------------------------------------------|
B|--------------------------------------------------------------|
G|--------------------------------------------------------------|
D|----------------------9----9-8----------------------9----9-10-|
A|---------------9-9-10---10-------------------9-9-10---10------|
E|-0-0-0-0-0-0-0------------------0-0-0-0-0-0-0-----------------|


Video Clip de Bautizados en rencor


ACORDES PARA GUITARRA

PIANO UKELELE


TOP 20: Las más tocadas de Neurosis Inc.


Acordes

Cerrar

21.10


88