Se tú mismo

Neurosis Inc.

Acordes

Subida por uwuy


Más Versiones
Ver. 2 Ver. 3

Cambiar Cifrado
Americano Latino

Cambiar Tonalidad
-1 +1

Partir Pantalla Imprimir FAQ

+A
-A


Ver solo la LETRA
PM = palm mute
s=slide
( ) = dejar sonando - let ring
h=hammer on
B=bend



Riff 1 x 2 veces

Guitarra 1

PM--| PM--| PM--| PM--|
E|----------------------------------------------------------------------|
B|----------------------------------------------------------------------|
G|----------------------------------------------------------------------|
D|----------------------------------------------------------------------|
A|-----7h-8-7h-8-----7h-8-7h-8--8-7-----7h-8-7h-8-----7h-8-7h-8--8-7-10-|
E|-0-0-----------0-0------------6-5-0-0-----------0-0------------6-5-8--|

Guitarra 2
E|----------------------------------------------------------------------|
B|----------------------------------------------------------------------|
G|----------------------------------------------------------------------|
D|----------------------------------------------------------------------|
A|------------------------------8--7-----------------------------8-7-10-|
E|------------------------------6--5-----------------------------6-5-8--|


Riff 2 x 2 veces

PM-| PM-| PM-| PM-----------------| PM--| PM--|
E|------------------------------------------------------------------------|
B|------------------------------------------------------------------------|
G|------------------------------------------------------------------------|
D|----------------------------------------------------------------7-5-----|
A|-8-7----8-7----8-7----8-7----8-7---7-8-7----8-7----8-7----8-7-------8-7-|
E|-----00-----00-----00-----00-----8-------00-----00-----00-----0---------|



Riff 3 (“Te crees libre…”) x 2 veces / 2 times

PM----------| PM----------| PM-------|
E|---------------------------------------------------------
B|---------------------------------------------------------
G|---------------------------------------------------------
D|-9s-8--------------8s-7--------------9s-8-----------9s-8-
A|-7s-6--------------6s-5--------------7s-6-----------7s-6-
E|------000000000000------000000000000------1-0-3-2-1------

PM----------| PM---------|
--------------------------------------------------|
--------------------------------------------------|
--------------------------------------------------|
--------------8s-7--------------9s-8----8-7-------|
--------------6s-5--------------7s-6----6-5-8-7-9-|
-000000000000------000000000000------0------6-5-7-|



-2-


Riff 4 x 2 veces
PM---| PM-| PM-| PM-| PM-| PM-| PM------|
E|---------------------------------------------------------------------------|
B|---------------------------------------------------------------------------|
G|---------------------------------------------------------------------------|
D|---------------------------------------------------------------------------|
A|--------6-7----7-9----9-10--10-9-7-9-7-6----6-7----7-9----9-10--10-9-10-7b-|
E|-000000-----00-----00--------------------00------00----00------------------|

PM-------|
segunda vez / second time
|-----------|
|-----------|
|-----------|
|-----------|
|---------2-|
|-3-2-3-2-0-|
Riff 5 x 2 veces

Guitarra 1
PM---| PM--| PM-| PM-| PM-| PM-| PM-| PM--| PM-| PM-| PM-|
E|-------------------------------------------------------------------------
B|-------------------------------------------------------------------------
G|-------------------------------------------------------------------------
D|-9---------------9------------9----------10------------10----------10----
A|-7------10-------7-----10-----7----10----8-----11------8-----11----8-----
E|---000-0-8--0000---00-8---00----00-8--00----00-9--0000----00-9--00----00-

PM--|
--------|
--------|
--------|
--------|
-11-----|
-9--0-0-|


Guitarra 2 - Guitar 2 (caídas con batería) x 2 veces
E|----------------------------------------------------------------------------|
B|----------------------------------------------------------------------------|
G|----------------------------------------------------------------------------|
D|----------------------------------------------------------------------------|
A|-(2)-----------------------------------(3)----------------------------------|
E|-(0)-----------------------------------(1)----------------------------------|


Riff 6 (“Se Tú Mismo…”) x 2 veces
E|----------------------------------------------|
B|----------------------------------------------|
G|----------------------------------------------|
D|-9-------9------9------10-------11------11----|
A|-7--10---7--10--7--10--8---11---8---11--8--11-|
E|----8-------8------8-------9--------9------9--|



-3-


Riff 7 x 1 vez

Guitarra 1 - Guitar 1
PM---| PM--| PM--| PM---|
E|----------------------------------------------------------------------|
B|----------------------------------------------------------------------|
G|----------------------------------------------------------------------|
D|----------------10----------------10----------------10--------7-6-----|
A|------7-8-7-8-7---------7-8-7-8-7---------7-8-7-8-7---------------8-7-|
E|-0000--------------0000--------------0000--------------000000---------|

Guitarra 2 - Guitar 2 (primera vez - first time)
E|---------------------------------------------------------------------------|
B|---------------------------------------------------------------------------|
G|---------------------------------------------------------------------------|
D|-------------------------------------------------------------------7-6-----|
A|-----------------------------------------------------------------------8-7-|
E|---------------------------------------------------------------------------|

Guitarra 2 - Guitar 2
E|---------------------------------------------------------------------------|
B|---------------------------------------------------------------------------|
G|---------------------------------------------------------------------------|
D|-------------------------------------------------------------------7-6-----|
A|-2-------------------2----------------2--------------------------------8-7-|
E|-0-------------------0----------------0------------------------------------|


Riff 8 x 1 vez
E|------------------------------------------------------|
B|------------------------------------------------------|
G|------------------------------------------------------|
D|-7-6--------7-6--------7-6------------7-6-------7-6---|
A|-----8-(7b)-----8-(5b)-----8-7h-8-(7)-----8-(5)-----8-|
E|------------------------------------------------------|


Riff 9 (“La vida es un suspiro…”) x 10 veces
E|---------------------------------------------|
B|---------------------------------------------|
G|---------------------------------------------|
D|-------7b-7b-7b------------7b-7b-7b----------|
A|-------8b-8b-8b-(2)--------8b-8b-8b-2-3-(2b)-|
E|-0-0-0----------(0)--0-0-0-------------------|


NUEVO FORO DE MÚSICA

¿Tienes alguna duda, consulta, pregunta, consejo o algo para compartir sobre esta canción?

¡Puedes abrir un hilo en el FORO para que la comunidad te ayude! Hacer una pregunta

ACORDES PARA GUITARRA

PIANO UKELELE
B


Las más tocadas de Neurosis Inc.

B