La barca de oro

Nicho Hinojosa

Acordes

Subida por Cdeclotis


Más Versiones
Ver. 2 Ver. 3

Cambiar Cifrado
Americano Latino

Cambiar Tonalidad
-1 +1

Partir Pantalla Imprimir FAQ

+A
-A
La introduccíon se toca hasta el cambio de acorde en B7.
Intro
E
e |-----------------------------------------|
B |-----------------------------------------|
G |-------1---------1---------1---------1---|
D |-----2---2-----2---2-----2---2-----2---2-|
A |---2---------2---------2---------2-------|
E |-0---------0---------0---------0---------|

B7
Yo ya me voy al puerto donde se haya
A D
la barca de oro que debe conducirme
* C#7 F#m Bm
yo ya me voy, solo vengo a despedirme
E A E
adiós mujer, adiós para siempre, adiós.

E B7
No volverán tus ojos a mirarme
A D
ni tus oídos escucharan mi canto
* C#7 F#m Bm
voy a aumentar, los mares con mi llanto
E A E C
adiós mujer, adiós para siempre, adiós
E A **
adiós mujer, adiós para siempre, adiós.

*
C#7
e |--------------4---|
B |------------6---6-|
G |----------4-------|
D |-3-2-0------------|
A |--------4---------|
E |------------------|

** Final
E E
e |----------3-2-1-0----------------------------------0-------------0-|
B |---------0---------2-0-----3-1-0-----------------0---0---------0---|
G |-------1---------------2-0-------2-0-----------1-------------1-----|
D |-----2-------------------------------2-0-------------------2-------|
A |---2-------------------------------------2-0-------------2---------|
E |-0-------------------------------------------0---------0-----------|

Y eso es todo, espero comentarios a mi correo.
SALUDOS A MIS AMISTADES DE LA PREPARATORIA REGIONAL DE TEOTIHUACAN.


NUEVO FORO DE MÚSICA

¿Tienes alguna duda, consulta, pregunta, consejo o algo para compartir sobre esta canción?

¡Puedes abrir un hilo en el FORO para que la comunidad te ayude! Hacer una pregunta

ACORDES PARA GUITARRA

PIANO UKELELE
E
B7
A
D
C#7
F#m
Bm
C


Las más tocadas de Nicho Hinojosa

E
B7
A
D
C#7
F#m
Bm
C