Despiértame (Acordes)

Nicole

Subida por wilson02

Compartir


Cambiar Cifrado
Americano Latino

Cambiar Tonalidad
-1 +1
Imprimir FAQ
+A
-A

Texto

Desplazamiento

Transportador

Color de Fondo

Archivos

-A
+A

"Despiertame"
Nicole
Trancrita por TheCrow ([email protected])

Riff1
e|--------------------------------
B|--------------------------------
G|---------3----5------(5)--------
D|-5--5----3----5------(5)--------
A|-5--5----1----3------(3)-3//--
E|-3--3---------------------------


Riff2
e|--------------------------------
B|--------------------------------
G|--------------8------(8)--------
D|-5--5----8----8------(8)--------
A|-5--5----8----6------(6)-3//--
E|-3--3----6----------------------

Riff3
e|-----8---------6---
B|--8-----8----------
G|-------------------

Riff4
G|--5-7-5-3-0-0-3-0


Intro
 Riff1x4
 Riff2x4
 Riff3x4
Verso
 Riff4
Coro
 Riff2
Interludio
 Riff4
Etc.......

Puede que existan errores, si los por favor E-Mail´me.


Video Clip de Despiértame


ACORDES PARA GUITARRA

PIANO UKELELE


TOP 20: Las más tocadas de Nicole


Toca una Canción al Azar de Nicole

Acordes

Cerrar

20.23

x

54