Todo lo que quiero (Acordes)

Nicole

Subida por rafag

Compartir


Cambiar Cifrado
Americano Latino

Cambiar Tonalidad
-1 +1
Imprimir FAQ
+A
-A

Texto

Desplazamiento

Transportador

Color de Fondo

Archivos

-A
+A
Todo lo que quiero

Nicole

En los versos va esto:

  Ven, descubreme...
E|-----------------------------------------------------|
B|-----------------------------------------------------|
G|-----------------------------------------------------|
D|--------5------------7------------5------------7-----|
A|--3--3--3--3---5--5--5--5---3--3--3--3---5--5--5--5--|
E|-----------------------------------------------------|

Luego siguen esos mismos acordes pero con distorsion, cuando entra la bateria.

Luego cuando dice "ven no tengas miedo" toca Si:

E|------------|
B|------------|
G|--4---------|
D|--4---------|
A|--2---------|
E|------------|

Y luego el coro es lo casi lo mismo, pero cambiando el orden de las notas
y metiendo un Sol:

   Todo lo que quiero es que...
E|----------------------------------|-------------------------------------|
B|----------------------------------|-------------------------------------|
G|--7---7------5---5------7--7------|-------------------------------------|
D|--7---7------5---5------7--7------|---5-------5--5--5--5--5-------------|
A|--5---5---0--3---3---0--5--5--0---|---5-------5--5--5--5--5-------------|
E|----------------------------------|---3-------3--3--3--3--3-------------|

En el puente ("antes de que te vayas, antes de que me olvides") va esto:

E|------------------------------------|
B|------------------------------------|
G|------------------------------------|
D|---3---3--3---3----5--5---5----5----|
A|---3---3--3---3----5--5---5----5----|
E|---1---1--1---1----3--3---3----3----|

No hay solos y en algunos acordes hay que tocar muchas mas veces de las que
yo estoy anotando, pero con esto se dan una buena idea de como deben tocar
la cancion.


Enrique Zamudio Lopez
[email protected]


Video Clip de Todo lo que quiero


ACORDES PARA GUITARRA

PIANO UKELELE


TOP 20: Las más tocadas de Nicole


Toca una Canción al Azar de Nicole

Acordes

Cerrar

03.40

x

79