Mírame

Nikki Clan

Acordes

Nikki Clan (2006)
Subida por dm101


Más Versiones
Ver. 2 Ver. 3 Ver. 4 Ver. 5 Ver. 6

Cambiar Cifrado
Americano Latino

Cambiar Tonalidad
-1 +1

Partir Pantalla Imprimir FAQ

+A
-A


Ver solo la LETRA
Esta es una versión en Guitarra Acústica,
suena un poco mejor, se que les
gustará...



Intro: (se usa el mismo riff en los versos)


Guitr. 1
E|----------------|---------------|
B|----------------|---------------|
G|----------------|-8-8---8-8-----|
D|--6-6--6-6------|-8-8---8-8-----|
A|--6-6--6-6------|-6-6---6-6-----|
E|--4-4--4-4------|---------------|
pm... pm.......
Guitr. 2
E|----------------|---------------|
B|-------4-4------|-------7-6h7---|
G|-------4-3h4----|-------8-8-----|
Yeah! yeah!


Am Em Am
Ya no se ni que hacer para que te fijes

Em Am
Me aparezco donde estés para que me mires

Em Am
Me muero por ti y tú ni me ves

Em F G
Me va a enloquecer tu forma de ser
F G G#
Tú no me ves...


Coro:

Am F G Em Am
Mírame, Mírame que no ves Traigo a otros al revés

F G Em
Pero tú ni me ves

Am F G Em Am
Mírame, Mírame Que no ves Que me tienes a tus pies

F G Em Am
Por favor mírame,Tan solo mírame.

Interludio
Guitr. 1
E|----------------|---------------|
B|----------------|---------------|
G|----------------|-8-8---8-8-----|
D|--6-6--6-6------|-8-8---8-8-----|
A|--6-6--6-6------|-6-6---6-6-----|
E|--4-4--4-4------|---------------|
pm... pm.......
Guitr. 2
E|----------------|---------------|
B|-------4-4------|-------7-6h7---|
G|-------4-3h4----|-------8-8-----| (x2)


Estrofa: usar el riff de la intro.
-------

Am Em Am
Tus amigos me gane y de qué me sirve

Em Am
Soy más dulce que la miel Y con otras ríes

Em Am
Me va a enloquecer tu forma de ser

Em F G
Me muero por ti y tú ni me ves

F G G#
No se que hacer...


Coro :

Am F G Em Am
Mírame, Mírame que no ves Traigo a otros al revés

F G Em
Pero tú ni me ves

Am F G Em Am
Mírame, Mírame Que no ves Que me tienes a tus pies

F G
Por favor mírame,

Em Am F G
Tan solo mírame (Te quiero, te quiero)

Em Am F G
Tan solo mírame (Contigo me veo)

Em Am F G
Tan solo mírame (Perderte no puedo)

Em Am F G
Tan solo mírame (Conmigo te quiero)



C F Am G
Tener tu amor Sería mejor

C F Am G
Así, sin ti Me siento morir

F G
Y no se que hacer

F G G#
Tú no me ves...


repetir Coro :


NUEVO FORO DE MÚSICA

¿Tienes alguna duda, consulta, pregunta, consejo o algo para compartir sobre esta canción?

¡Puedes abrir un hilo en el FORO para que la comunidad te ayude! Hacer una pregunta

ACORDES PARA GUITARRA

PIANO UKELELE
Am
Em
F
G
G#
C


Las más tocadas de Nikki Clan

Am
Em
F
G
G#
C