Niñas Mal

Nikki Clan

Acordes

Subida por Sergio2121


Más Versiones
Ver. 2 Ver. 3 Ver. 4 Ver. 5 Ver. 6

Cambiar Cifrado
Americano Latino

Cambiar Tonalidad
-1 +1

Partir Pantalla Imprimir FAQ

+A
-A


Ver solo la LETRA
Ok, ésta canción la escuché por primera vez gracias a mi enamorada,
me gustó y decidí sacarla, asi que aquí está:

La canción se toca en general con quintas de la siguiente manera:

INTRO

A5 G5 E5 F5
e|----------------|----------------|
B|----------------|----------------|
G|----------------|----------------|
D|--7-7----5-5-5--|---2--2--3-3----| x2
A|--7-7----5-5-5--|---2--2--3-3----|
E|--5-5----3-3-3--|---0--0--1-1----|

ESTROFAS (similar al intro pero com PM)

A5 G5 E5 F5 A5 G5 F5 G5
e|----------------|----------------|----------------|----------------|
B|----------------|----------------|----------------|----------------|
G|----------------|----------------|----------------|----------------|
D|7-7-7-7-5-5-5-5-|2-2-2-2-3-3-3-3-|7-7-7-7-5-5-5-5-|3-3-3-3-5-5-5-5-| x3
A|7-7-7-7-5-5-5-5-|2-2-2-2-3-3-3-3-|7-7-7-7-5-5-5-5-|3-3-3-3-5-5-5-5-| (x2)
E|5-5-5-5-3-3-3-3-|0-0-0-0-1-1-1-1-|5-5-5-5-3-3-3-3-|1-1-1-1-3-3-3-3-|
PM.................................................................

---Luego---

C5 C5 D5 D5
e|----------------|----------------|----------------|----------------|
B|----------------|----------------|----------------|----------------|
G|-5-5-5-5-5-5-5-5|-5-5-5-5-5-5-5-5|-7-7-7-7-7-7-7-7|-7-7-7-7-7-7-7-7|
D|-5-5-5-5-5-5-5-5|-5-5-5-5-5-5-5-5|-7-7-7-7-7-7-7-7|-7-7-7-7-7-7-7-7| x2
A|-3-3-3-3-3-3-3-3|-3-3-3-3-3-3-3-5|-5-5-5-5-5-5-5-5|-5-5-5-5-5-5-5-5|
E|----------------|----------------|----------------|----------------|

CORO

A5 B5-C5 C5 G5 E5-F5 F5
e|----------------|----------------|----------------|----------------|
B|----------------|----------------|----------------|----------------|
G|----------4---5-|--5-5-5-5-5-5-5-|----------------|----------------|
D|7-7-7-7-7-4---5-|--5-5-5-5-5-5-5-|5-5-5-5-5-2---3-|--3-3-3-3-3-3-3-| x2
A|7-7-7-7-7-2---3-|--3-3-3-3-3-3-3-|5-5-5-5-5-2---3-|--3-3-3-3-3-3-3-|
E|5-5-5-5-5-------|----------------|3-3-3-3-3-0---1-|--1-1-1-1-1-1-3-|

PUENTE

A5 F5 G5 A5 E5 G5
e|----------------|----------------|----------------|----------------|
B|----------------|----------------|----------------|----------------|
G|----------------|----------------|----------------|----------------|
D|-7--------------|-3-3-----5-5----|-7--------------|-2-2-----5-5-5-5|
A|-7--------------|-3-3-----5-5----|-7--------------|-2-2-----5-5-5-5|
E|-5--------------|-1-1-----3-3----|-5--------------|-0-0-----3-3-3-3|
PM.............. PM..............

A5 F5 G5 F5 E5
e|----------------|----------------|----------------|----------------|
B|----------------|----------------|----------------|----------------|
G|----------------|----------------|----------------|----------------|
D|-7--------------|-3-3-----5-5----|3-3-3-3-3-3-3-3-|2-2-2-2-2-2-2-2-|
A|-7--------------|-3-3-----5-5----|3-3-3-3-3-3-3-3-|2-2-2-2-2-2-2-2-|
E|-5--------------|-1-1-----3-3----|1-1-1-1-1-1-1-1-|0-0-0-0-0-0-0-0-|
PM..............



Y ahora la letra:



INTRO A5 G5 E5 F5


A5 G5 E5 F5
Metete en mi mundo,

A5 G5 F5 G5
mira a donde voy

A5 G5 E5 F5
Tal vez es absurdo

A5 G5 F5 G5
pero asi soy yo

A5 G5 E5 F5
Se ve q no ha probado mas q el fresa-amor

A5 G5 F5 G5
//ooh ooh yeah//

C5
no soy la niña ejemplo

D5
no habra ternura en mis besos

C5 D5
vas a pedirme cada vez más

y te lo voy a dar

**CORO**

A5 B5-C5 G5 E5-F5
Ooh Hoy en mi probaras

A5 B5-C5
todo lo q te has perdido hoy buscas

G5 E5-F5
Ya veras q en mi entrara una niña mal

//INTRO (Ooh Ooh una niña mal) A5 G5 E5 F5 //
// (Ooh ooh oooh) A5 G5 E5 F5 //

A5 G5 E5 F5
No me tengas miedo

A5 G5 F5 G5
deja de pensar

A5 G5 E5 F5
sigueme este juego

A5 G5 F5 G5
no te arrepentiras

C5
no soy la niña ejemplo

D5
no habra ternura en mis besos

C5 D5
vas a pedirme cada vez más

y te lo voy a dar


**CORO**

A5 B5-C5 G5 E5-F5
Ooh Hoy en mi probaras

A5 B5-C5
todo lo q te has perdido hoy buscas

G5 E5-F5
Ya veras q en mi entrara una niña mal

//INTRO (Ooh Ooh una niña mal) A5 G5 E5 F5 //
// (Ooh ooh ) A5 G5 E5 F5 //

**Puente**

A5 (F5 G5)
Ella te espera

A5 (E5 G5)
Tu niña buena

A5 (F5 G5) F5 E5
Solo te aburriras

(igual al coro)
A5 B5-C5
Una niña, una niña

G5 E5-F5
Una niña, una niña

A5 B5-C5
Una niña, una niña

G5 E5-F5 F5
Una niña, una niña

**CORO**

A5 B5-C5 G5 E5-F5
Ooh Hoy en mi probaras

A5 B5-C5
todo lo q te has perdido hoy buscas

G5 E5-F5
Ya veras q en mi entrara una niña mal

A5 B5-C5 G5 E5-F5
Ooh Has vivido al reves

A5 B5-C5
y lo q creias nuestra realidad

G5 E5-F5
Ya veras q en mi entrara una niña mal

A5 G5 E5 F5
Una niña,una niña

A5 G5 E5 F5
Una niña,una niña

A5 G5 E5 F5
Una niña,una niña

A5 G5 E5 F5
Una niña,una niñas mal


Bueno esta es mi primera colaborción, espero que les guste.
Dedicada especialmente para mi flakita,
yo se que le gusta esta canción;
tambien para los panas guitarristas en general, y a mis amigos
en Santo Domingo - Ecuador.

-*-BY ISRA-*-


NUEVO FORO DE MÚSICA

¿Tienes alguna duda, consulta, pregunta, consejo o algo para compartir sobre esta canción?

¡Puedes abrir un hilo en el FORO para que la comunidad te ayude! Hacer una pregunta

ACORDES PARA GUITARRA

PIANO UKELELE
A5
G5
E5
F5
C5
D5
B5


Las más tocadas de Nikki Clan

A5
G5
E5
F5
C5
D5
B5