Me siento mejor
Pedro Suarez Vertiz
Acordes

Subida por arachan4


Más Versiones
Ver. 2 Ver. 3 Ver. 4 Ver. 5

HERRAMIENTAS

Cambiar Cifrado
Americano Latino

Cambiar Tonalidad
-1 +1

Partir Pantalla Imprimir FAQ

+A
-A

LETRA CON ACORDES

¿Tu Guitarra esta Afinada? PRUEBA NUESTRO NUEVO AFINADOR

Intro                   D
E|---------------------------
B|-------------------------3-
G|-----2-----2-----2-----2---
D|-2-4---2-4---2-4---2-4-----
A|---------------------------
E|---------------------------

D A
E|------------------------------------------------------
B|-------------------------3-------------------------2--
G|-----2-----2-----2-----2-------2-----2-----2-----2-2--
D|-2-4---2-4---2-4---2-4-----2-4---2-4---2-4---2-4---2--
A|------------------------------------------------------
E|------------------------------------------------------

D A
Me siento mejor,
D D7
mi situación es nueva
G A Bm D7
últimamente he recuperado la fascinación
G F#7
No he descubierto no, cosas nuevas,
Bm A E
tan solo he regresado a las viejas,
D A D A
al sueño de amor, y a los placeres de la inspiración

D A
Me siento mejor,
D D7
mi situación es nueva
G A Bm D7
he descubierto que sigo siendo un tipo bonachón
G F#7
si yo dañe o ame en consecuencia
Bm A E
no golpeo más mi conciencia
D A D A
fue mi corazón, amar a todos trae complicación

SOLO CLARINETE
G F#7 Bm A E D A D A

D A
La felicidad,
D D7
pensé que no era eterna
G A Bm D7
y es que muy fácil uno se enferma con la soledad
G F#7
De los recuerdos no hago leyenda
Bm A E
la nostalgia ya no me tienta
D A D A
yo vivo en el hoy, ni en ayer ni en el mañana estoy

D A
Conocí a una mujer,
D D7
ella me dio su vida
G A Bm D7
le regale miles de notitas en un medallón
G F#7
ella aguanto el sufrir mi imprudencia
Bm A E
de que me sirve ahora la experiencia
D A D A
ya se la lección y sin embargo no la olvido hasta hoy

[SOLO CLARINETE]
G F#7 Bm A E D A D A

D A
La real situación,
D D7
por la que va tu vida,
G A Bm D7
son las palabras que se te quedan en una canción
D A
Al cielo me iré
D D7
pero el demonio espera,
G A SIm D7
sigue esperando pues yo lo arruino con mi represión
G F#7
No me acostumbro, no a la idea
Bm A E
de que el placer posea fronteras
D A D A
pero es lo mejor para este mundo en putrefacción

D A
Perdimos libertad
D D7
generación del Sida
G A Bm D7
yo que esperé todita mi vida para reventar
G F#7
Después de un millón de años ahora llegan
Bm A E
moralidades que me desesperan
D A D
pero es lo mejor, por eso ahora me siento mejor.


Outro D
E|---------------------------
B|-------------------------3-
G|-----2-----2-----2-----2---
D|-2-4---2-4---2-4---2-4-----
A|---------------------------
E|---------------------------

D D
E|---------------------------------------------------2-3-----2
B|-------------------------3---------------------------------3
G|-----2-----2-----2-----2-------2-----2-----2-----2-----2-4-2
D|-2-4---2-4---2-4---2-4-----2-4---2-4---2-4---2-4------------
A|------------------------------------------------------------
E|------------------------------------------------------------

////////////////// ¿Te Animas? Sube una canción a este sitio. //////////////////

ACORDES PARA GUITARRA

PIANO UKELELE
D
A
D7
G
Bm
F#7
E
Bm


COMENTARIOS

Aún no hay comentarios,

¡escribe el primero!

Escribe una pregunta, duda o comentario sobre esta canción, te responderemos a la brevedad.

Las canciones más tocadas de Pedro Suarez Vertiz

Toca una Canción al Azar de Pedro Suarez Vertiz
D
A
D7
G
Bm
F#7
E
Bm

19.54


Nuestro servidor se demoró 0.02 segundos en generar esta página. Eso fue realmente muy rápido!