No pensé que era amor
Pedro Suarez Vertiz
Acordes

Subida por Yufaggsarcof


Más Versiones
Ver. 2 Ver. 3 Ver. 4 Ver. 5 Ver. 6 Ver. 7 Ver. 8

HERRAMIENTAS

Cambiar Cifrado
Americano Latino

Cambiar Tonalidad
-1 +1

Partir Pantalla Imprimir FAQ

+A
-A

LETRA CON ACORDES

¿Tu Guitarra esta Afinada? PRUEBA NUESTRO NUEVO AFINADOR

INTRO:

------------------------------------------------------
------------------------------------------------------
------------------------------------------------------
-------7------9---------------------------------------
----------------------7-------------------------10----
------------------------------10-------7--------------
D F#
NO PENSE QUE ERA AMOR Y LO DEJAVA CORRER
Bm D7 G
IBA ATANDO MIS MANOS ME ALEJO DEL AYER Y EL MAR
A D B7
QUE ANTES MIRABA ESTANDO SOLO HOY VALE NADA SIN TI
Em A G D
LO SE, QUEDA POCO Y YA TE TIENES QUE IR.
G A D Bm
MI ALMA LORARA MI AMOR LORARA Y CAERA EN UN POZO
B7 Em A D7
PUES TE VAS Y QUEDO MUY SOLO CUANTO SEGUNDOS MAS
G D
TE PODRE MIRAR Y ES VERDAD QUE AL HABLAR
D D B7 Em
DE AMOR AL HABLAR ME DESTROSO, PUES TE VAS
A G D
Y QUEDO TAN SOLO QUE PREFIERO MORIR.
D D7
SIN PENSAR EN MANANA SOLLOZANDO MI PIE
Bm D7 G
YA NO TENGO PALABRAS NO TE VOLVERE A VER JAMAS
A D
Y ESTO ME ESTA ARRANCANDO TODO ME ESTA MATANDO
B7 Em A G D
YO LO SE ESTA BIEN DENTRO DE POCO NO TE VOLVERE A VER....

D F#
YO PENSE QUE ERA DUENO DE LO QUE PODIA SER
Bm Bm G
YA NO TOQUES MI PIEL SI NO VAS A VOLVER JAMAS
A D B7
PORQUE SE INUNDAN MIS OJOS AL HABLAR DE TI
Em A G D
NO LO SE ESTARE LOCO O ES QUE ME QUIERO MORIR
Em A G D
NO LO SE ESTARE LOCO O ES QUE ME QUIERO MORIR.

final :

-----------------------------------------
-----------------------------------------
-----------------------------------------
--------------11-------------------------
---------12--------10/--12/---10---------
----10-----------------------------------

========================================================
Transcripto por Waldyr Contreras
([email protected])

////////////////// ¿Te Animas? Sube una canción a este sitio. //////////////////

ACORDES PARA GUITARRA

PIANO UKELELE
D
F#
Bm
D7
G
A
B7
Em


COMENTARIOS

Aún no hay comentarios,

¡escribe el primero!

Escribe una pregunta, duda o comentario sobre esta canción, te responderemos a la brevedad.

Las canciones más tocadas de Pedro Suarez Vertiz

Toca una Canción al Azar de Pedro Suarez Vertiz
D
F#
Bm
D7
G
A
B7
Em

16.29


Nuestro servidor se demoró 0.02 segundos en generar esta página. Eso fue realmente muy rápido!