Nadia
Pedro Suarez Vertiz
Acordes

Subida por TOMAS23


Más Versiones
Ver. 2

Cambiar Cifrado
Americano Latino

Cambiar Tonalidad
-1 +1

Partir Pantalla Imprimir FAQ

+A
-A
Exelente balada de Pedro con Juan Diego
Disfrutenla...

Intro

Bm (3x) [Lo pueden arpegiar en el Bm del 7mo traste]

G A Bm
Hoy me he dormido sin querer
G A Bm
Hoy nadie me ha venido a ver
F#m Bm G A
Soy la semilla que la lluvia aun no ha regado
G A Bm
Hoy he perdido sin saber
G A Bm
Hoy no hay abrigo de mujer
F#m Bm G A
Se que un destino sin dolor me ha sido negado
F#m Bm G A
Son las heridas del amor todo lo que cargo
Bm F#m G D A
Pero suelo soñar y no despertar
G A Bm
Hoy no he salido solo ayer
G A Bm
Hoy no hay motivo no lo ves?

G A Bm
e||-3-3-3-3--3-7-5-3-2---------------------------------------|
B||--------------------0-0-0---0-2-3--2-0--------------------|
G||----------------------------------------------------------|
D||---------------------------------------4-4-4-4------------|
A||----------------------------------------------------------|
E||----------------------------------------------------------|
G A Bm
e||----------3-7-5-3-2-2----------------0--------------------|
B||----------------------3-3--0-2-3--2-0---3-2---------------|
G||-0-0-0-0--------------------------------------------------|
D||----------------------------------------------------------|
A||----------------------------------------------------------|
E||----------------------------------------------------------|


F#m Bm G A
Se que el efecto del dolor te hace mas humano
F#m Bm G A
Dios infinita soledad la que me ha tocado
Bm F#m G D A
Pero suelo soñar y no despertar
Bm F#m G D A
Pero suelo soñar y no despertar
G A Bm
Hoy solo quiero enloquecer
G A Bm
Hoy solo quiero no entender

////////////////// ¿Te Animas? Sube una canción a este sitio. //////////////////

ACORDES PARA GUITARRA

PIANO UKELELE
G
A
Bm
F#m
D


COMENTARIOS

Aún no hay comentarios,

¡escribe el primero!

Escribe una pregunta, duda o comentario sobre esta canción, te responderemos a la brevedad.

Las más tocadas de Pedro Suarez Vertiz

Toca una Canción al Azar de Pedro Suarez Vertiz
G
A
Bm
F#m
D