Se que todo acabado ya
Pedro Suarez Vertiz
Acordes

Subida por pilar


Más Versiones
Ver. 2 Ver. 3 Ver. 4

Cambiar Cifrado
Americano Latino

Cambiar Tonalidad
-1 +1

Partir Pantalla Imprimir FAQ

+A
-A
PEDRO SUAREZ VERTIZ
Se que todo acabado ya


INTRO


e|-----------------------------------------------------------5->
B|---------------------------------------3--------------------->
G|-------------------2----------------------------------------->
D|--------2----4/5p4----------2----4/5p4----------2----4/5p4--->
A|-0--2h4---4--5/6p5---0--2h4---4--5/6p5---0--2h4---4--5/6p5--->
E|------------------------------------------------------------->

e|-------------------------|
B|-------------------------|
G|-------------------------|
D|--------2h4p2------------|
A|-0--2h4-------0----------|
E|-----------------0--2--4-|


A E F#m
Se que todo acabado ya
D A E
como duele el corazon
A E F#m
ya no queda oportunidad
D A E
un gran libro se cerro
A E F#m
nadie ve lo que va pasar
D A E
somos ciegos al nacer
A E F#m
y ahora vez nada estuvo mal
D A E
nos culpamos sin querer.



CORO

B G#m
Si estoy bien o si estoy mal
C#m B F#
al universo le da igual todo sigue alrededor
B G#m
el amor no es divinidad
C#m B F#
es un ciclo natural que destroza el corazon.




Esta bien lo voy aceptar
Dios no inventes el final, (es lo unico que te pido).


SOLO


Por favor no paseemos mas
es muy tarde y ya me voy
por favor ya no hablemos mas
se desluce una ilusion.

da ra ra ra ra ra ra ..............

////////////////// ¿Te Animas? Sube una canción a este sitio. //////////////////

ACORDES PARA GUITARRA

PIANO UKELELE
A
E
F#m
D
B
G#m
C#m
F#


COMENTARIOS

Aún no hay comentarios,

¡escribe el primero!

Escribe una pregunta, duda o comentario sobre esta canción, te responderemos a la brevedad.

Las más tocadas de Pedro Suarez Vertiz

Toca una Canción al Azar de Pedro Suarez Vertiz
A
E
F#m
D
B
G#m
C#m
F#