Y es que sucede así

Pedro Suarez Vertiz

Acordes

Subida por Bmarquez


Más Versiones
Ver. 2 Ver. 3 Ver. 4 Ver. 5 Ver. 6

Cambiar Cifrado
Americano Latino

Cambiar Tonalidad
-1 +1

Partir Pantalla Imprimir FAQ

+A
-A


Ver solo la LETRA
weno luego d tanto buzcar pude encontrar ezte tab hecho por 1amigo
y como no encontre ninguno aqui, lo dejo para compartirlo
ahi les va "Y es que sucede así"...

INTRO:

despues de tiempo...
G|------------------------------|
D|------------------------------|
A|------------------------------| (2 VECES)
E|-5---4---3---2----------------|

que lindo cuerpo tienes...
G|-------------------|-------------------|
D|-------------------|-------------------|
A|-5-4----4-4------4-|--0-2-0------------| (2 VECES)
E|----7547---5-0-5---|-2------2-0-0457---|

G|-----------------------------------------|
D|-----------------------------------------|
A|-0--0-0--0-----------2--2-2--2-----------| (2 VECES)
E|-----------0--0-0--0-----------3--3-3--3-|


ESTROFA1:

se removieron...
G|-----------------|-------------------|
D|-----------------|-5-4----4-4--------|
A|------57-----345-|----7547---7-5457--| (2 VECES)
E|-5-7-9---4--6----|-------------------|

soy el mejor doctor...
G|-------------------|-------------------|
D|-------------------|-------------------|
A|-5-4----4-4------4-|--0-2-0------------| (2 VECES)
E|----7547---5-0-5---|-2------2-0-0457---|

y es que en el tiempo...
G|-----------------|-------------------|
D|-----------------|-5-4----4-4--------|
A|------57-----345-|----7547---7-5457--| (2 VECES)
E|-5-7-9---4--6----|-------------------|

refrescar todas aquellas...
G|-------------------|-------------------|
D|-------------------|-------------------|
A|-5-4----4-4------4-|--0-2-0------------| (2 VECES)
E|----7547---5-0-5---|-2------2-0-0457---|



CORO:
y es que sucede asi...
G|-----------------------------------------|
D|-----------------------------------------|
A|-0--0-0--0-----------2--2-2--2-----------| (4 VECES)
E|-----------0--0-0--0-----------3--3-323--|


ESTROFA2:

y en el silencio...
G|-----------------|-------------------|
D|-----------------|-5-4----4-4--------|
A|------57-----345-|----7547---7-5457--| (2 VECES)
E|-5-7-9---4--6----|-------------------|

estas sigues con esa magica sensualidad...
G|-------------------|-------------------|
D|-------------------|-------------------|
A|-5-4----4-4------4-|--0-2-0------------| (2 VECES)
E|----7547---5-0-5---|-2------2-0-0457---|

CORO.

SOLO CON EL ORGANO:
G|-------------------|-------------------|
D|-------------------|-------------------|
A|-5-4----4-4------4-|--0-2-0------------| (2 VECES)
E|----7547---5-0-5---|-2------2-0-0457---|


PARTE FINAL:

despues de tiempo...
G|------------------------------|
D|------------------------------|
A|------------------------------| (2 VECES)
E|-5---4---3---2----------------|

nana...
G|----------------------------------------|
D|----------------------------------------|
A|-0--0-0--0-----------2--2-2--2----------| (x VECES)
E|-----------0--0-0--0-----------3-3-323--|


NUEVO FORO DE MÚSICA

¿Tienes alguna duda, consulta, pregunta, consejo o algo para compartir sobre esta canción?

¡Puedes abrir un hilo en el FORO para que la comunidad te ayude! Hacer una pregunta

ACORDES PARA GUITARRA

PIANO UKELELE


Las más tocadas de Pedro Suarez Vertiz