Entrega
Pioneros de Schoenstatt
Acordes

Subida por eliezerali


Más Versiones
Ver. 2 Ver. 3

HERRAMIENTAS

Cambiar Cifrado
Americano Latino

Cambiar Tonalidad
-1 +1

Partir Pantalla Imprimir FAQ

+A
-A

LETRA CON ACORDES

¿Tu Guitarra esta Afinada? PRUEBA NUESTRO NUEVO AFINADOR

Intro
E|---0--------0--------|
B|--0-0---0--0-0---3---|
G|-0---0-0--0---0-2-2--| X2
D|2-----4--2-----------|
A|---------------------|
E|----------------2----|

E|---0--------0-----------0--------0--------|
B|--0-0---0--0-0---3-----0-0---0--0-0---3---|
G|-0---0-0--0---0-2-2---0---0-0--0---0-2-2--|
D|2-----4--2-----------2-----4--2-----------|
A|------------------------------------------|
E|----------------2--------------------2----|
Cuando siento tu amor tocar mi corazon

E|---0--------0-----------0--------0--------|
B|--0-0---0--0-0---3-----0-0---0--0-0---3---|
G|-0---0-0--0---0-2-2---0---0-0--0---0-2-2--|
D|2-----4--2-----------2-----4--2-----------|
A|------------------------------------------|
E|----------------2--------------------2----|
Cuando veo en tu luz, la fuerza de tu calor

Aqui cuando yo la toco; toco el bajo y las 3 agudas para
abajo y para arriva

LAm RE
No hay más respuesta posible
SOL LAm SI7
Que entregar todo lo que hay en mí
Mimm RE-DO LAm
Tómame Señor y seré como un niño ante ti
RE SI7
Seré tuyo como acto de amor

Aqui empiesa el rasgeo

MIm SIm MIm
Déjame que te ame con todo mi ser
SIm RE
Y en silencio puedas entender
Llam FA DO LAm RE
lo que entrega mi amor cuando veo en ti esa cruz de dolor
MIm SIm MIm
Y sabrás que quiero desangrarme por ti
SIm DO FA
Si me tomas la mano y me usas hoy para vencer
DO LAm RE LAm-SOL/SI-DO
Y clavar tu bandera y tu voz sin dudar ni temer
SI7 MIm - RE/FA#
Sin dudar ni temer


Y Aqui se repite desde el principio pero sin la intro

Aunque no sea mi amor igual al que tu me das
Toma mi corazón si en algo sirve a tu plan

Y si me necesitaras por pequeña que sea mi voz
Pídeme Señor
Que mi vida se entregue a tu amor
Y valiente moriré para ti

Coro


Adios, espero que les aya gustado y saludos para todos los pioneros.
Viva Valdivia!

´´Pionero de SCHOENSTATT, abre camino´´

////////////////// ¿Te Animas? Sube una canción a este sitio. //////////////////

ACORDES PARA GUITARRA

PIANO UKELELE
Am
D
G
B7
C
Em
Bm
F
G/B
D/F#


COMENTARIOS

Aún no hay comentarios,

¡escribe el primero!

Escribe una pregunta, duda o comentario sobre esta canción, te responderemos a la brevedad.

Las canciones más tocadas de Pioneros de Schoenstatt

Toca una Canción al Azar de Pioneros de Schoenstatt
Am
D
G
B7
C
Em
Bm
F
G/B
D/F#

23.45


Nuestro servidor se demoró 0.06 segundos en generar esta página. Eso fue realmente muy rápido!